Foo Fighters - All My Life Chords & Tabs

 

All My Life Chords & Tabs

Foo Fighters Chords & Tabs

Version: 4 Type: Tab 1 rating
1 star 2 stars 3 stars 4 stars 5 stars
comments

All My Life Tab

   
Foo Fighters
All My Life

Fret this power chord with your first and third finger using down strokes.

                                                                                
E-------------------------------------------||----------------------------------
B-------------------------------------------||----------------------------------
G------------------------------------------*||----------------------------------
D------------------------------------------*||----------------------------------
A------5-----5-----5-----5--------5-----5---||----------------------------------
E------3-----3-----3-----3--------3-----3---||----------------------------------
                                                                                

                                     NH                                         
E---------------------------------------||--------------------------------------
B---------------------------------------||--------------------------------------
G---------------------------------------||--------------------------------------
D------------------------------------4--||--------------------------------------
A------5-----5--------5-----5-----5--4--||--------------------------------------
E------3-----3--------3-----3-----3-----||--------------------------------------
                                                                            

Mosh Riff

                                                                                
E------------------------------------------------|------------------------------
B------------------------------------------------|------------------------------
G---3-----3-----3-----3-----3-----3-----------3--|------------------------------
D---5-----5-----5-----5-----5-----5-----------5--|------------------------------
A---5-----5-----5-----5-----5-----5-----------5--|------------------------------
E---3-----3-----3-----3-----3-----3-----------3--|------------------------------
                                                                                

                                                                                
E---------------------------------------------------|---------------------------
B---------------------------------------------------|---------------------------
G------3-----3-----3-----3-----------5-----5-----5--|---------------------------
D------5-----5-----5-----5-----------7-----7-----7--|---------------------------
A------5-----5-----5-----5-----------7-----7-----7--|---------------------------
E------3-----3-----3-----3-----------5-----5-----5--|---------------------------
                                                                                

                                                                                
E---------------------------------------------|---------------------------------
B---------------------------------------------|---------------------------------
G------3-----3-----3-----3-----3-----------3--|---------------------------------
D------5-----5-----5-----5-----5-----------5--|---------------------------------
A------5-----5-----5-----5-----5-----------5--|---------------------------------
E------3-----3-----3-----3-----3-----------3--|---------------------------------
                                                                                

                                                                                
E-------------------------------------------------||----------------------------
B-------------------------------------------------||----------------------------
G------3-----3-----3-----3--------6-----6-----6--*||----------------------------
D------5-----5-----5-----5--------8-----8-----8--*||----------------------------
A------5-----5-----5-----5--------8-----8-----8---||----------------------------
E------3-----3-----3-----3--------6-----6-----6---||----------------------------
                                                                            
Verse 2

Same as the mosh riff but more controlled
[ Tab from: http://www.guitartabs.cc/tabs/f/foo_fighters/all_my_life_tab_ver_4.html ]
    PM                                                                          
E------------------------|--------------------------------------|---------------
B------------------------|--------------------------------------|---------------
G---------5--------5-----|--5--------5-----5--------5--------5--|---------------
D---------3--------3-----|--3--------3-----7--------7--------7--|---------------
A------------------------|-----------------7--------7--------7--|---------------
E------3-----3--3-----3--|-----3--3--------5--------5--------5--|---------------
                                                                                

                                                                                
E---------------------------------|---------------------------||----------------
B---------------------------------|---------------------------||----------------
G---3--------5--------5-----------|--5--------5--6--6--6--\--*||----------------
D---5--------3--------3-----------|--3--------3--8--8--8--\--*||----------------
A---5-----------------------------|--------------8--8--8--\---||----------------
E---3-----3-----3--3-----------3--|-----3--3-----6--6--6--\---||----------------
                                                                                

                                                                                
E---------------------||-------------------------------||-----------------------
B---------------------||-------------------------------||-----------------------
G---5--------5-----5--||*-----------------------------*||-----------------------
D---3--------3-----3--||*-----------------------------*||-----------------------
A---------------------||---3--3-----3--3--3--------3---||-----------------------
E------3--3-----3-----||---5--5-----5--5--5--------5---||-----------------------
                                                                            

Chorus
Bash these chords out using Alternate Picking

         Eb                                                                                  
E------3-----3-----3-----3-----3-----3--|---------------------------------------
B------4-----4-----4-----4-----4-----4--|---------------------------------------
G------3-----3-----3-----3-----3-----3--|---------------------------------------
D------5-----5-----5-----5-----5-----5--|---------------------------------------
A------6-----6-----6-----6-----6-----6--|---------------------------------------
E------3-----3-----3-----3-----3-----3--|---------------------------------------
                                                                                
       
                                                                                
E------3-----3-----3-----3-----3-----3--|---------------------------------------
B------4-----4-----4-----4-----4-----4--|---------------------------------------
G------3-----3-----3-----3-----3-----3--|---------------------------------------
D------5-----5-----5-----5-----5-----5--|---------------------------------------
A------6-----6-----6-----6-----6-----6--|---------------------------------------
E------3-----3-----3-----3-----3-----3--|---------------------------------------
                                                                                

             Gm                                                              
E---3-----3-----3-----3-----3-----3--|--3-----3-----3-----3-----3-----0--|------
B---3-----3-----3-----3-----3-----3--|--3-----3-----3-----3-----3-----0--|------
G---3-----3-----3-----3-----3-----3--|--3-----3-----3-----3-----3-----0--|------
D---5-----5-----5-----5-----5-----5--|--5-----5-----5-----5-----5-----0--|------
A---5-----5-----5-----5-----5-----5--|--5-----5-----5-----5-----5--------|------
E---3-----3-----3-----3-----3-----3--|--3-----3-----3-----3-----3--------|------
                                                                                

              C                     F         F                                    
E---0-----0-----0-----0-----0-----1--|-----1-----1-----1-----1--------|---------
B---1-----1-----1-----1-----1-----1--|-----1-----1-----1-----1-----3--|---------
G---0-----0-----0-----0-----0-----2--|-----2-----2-----2-----2-----3--|---------
D---2-----2-----2-----2-----2-----3--|-----3-----3-----3-----3-----3--|---------
A---3-----3-----3-----3-----3-----3--|-----3-----3-----3-----3-----1--|---------
E---------------------------------1--|-----1-----1-----1-----1--------|---------
                                                                                

          Bb                                                                      
E----------------------------------||-------------------------------------------
B------3-----3-----3---------------||-------------------------------------------
G------3-----3-----3--------------*||-------------------------------------------
D------3-----3-----3--3--0--------*||-------------------------------------------
A------1-----1-----1--1-----1--0---||-------------------------------------------
E----------------------------------||-------------------------------------------
                                                                            

 



Comments