Foo Fighters - All My Life Chords & Tabs

 

All My Life Chords & Tabs

Foo Fighters Chords & Tabs

Version: 4 Type: Bass Tab 0 ratings
1 star 2 stars 3 stars 4 stars 5 stars
comments

All My Life Bass Tab

   
Intro - Just dave on guitar, look at live performances!

Pre-Verse
G---------------------------------------------------
D---------------------------------------------------
A---------------------------------------------------
E-33--0h33---0h33-0h3--555-33--0h33---0h33-0h3--666-

First Verse
G---------------------------------------------------
D---------------------------------------------------
A---------------------------------------------------
E-3---0h3----0h3-0h33--555-3---0h3----0h3-0h33--666-

First Chorus
G----------------------------------------------------------------------
D----------------------------------------------------------------------
A----------------------------------------------------------------------
E-15\0--3333333333333333-3333333333333333-00000000-11111111-6-66-6-4h6- x2

Second Verse
G---------------------------------------------------
D---------------------------------------------------
A---------------------------------------------------
E-33--0h33---0h33-0h3--555-33--0h33---0h33-0h3--666-

Second Chorus
G------------------------------------------------------------------
D------------------------------------------------------------------
A---------------------------------------77777777-88-7h8------------
E-15\-3333333333333333-3333333333333333-----------------6-66-6-4h6-
[ Tab from: http://www.guitartabs.cc/tabs/f/foo_fighters/all_my_life_btab_ver_4.html ]
G--------------------------------------------------------------------------
D-------------------------------------------------88p5---------------------
A------------------------------11----------------------8p5h88--------------
E-3333333333333333-3333333-0h3-----3p1p0-00000000---------------6-66-6-4h6-

Bridge (start at 2:40)
G-----
D-----
A-----
E-333-

(No singing, heavy rocking)
    Play this first then        1st      2nd
G----------------------------|-----|------------|
D----------------------------|-----|------------|
A----------------------------|-----|------------|
E-33-333-333-333-333-333-333-|-15\-|-3/15-15-15-|

(Screaming DONE DONE)
G----------------------------------------------------
D--------------------8-----------10-------10---------
A----------------/10---10-8---------10-10----10-10-8-
E-33-333-333-333------------33-3---------------------

G------------------------------------------------------------
D--------------------8------8--------------------------------
A----------------/10---10-8---10-10-8-10/15-10-10/15-10/15\8-
E-33-333-333-333---------------------------------------------

Last Chorus
G-------------------------------------------------------------------
D-------------------------------------------------------------------
A-------------------------------------------------------------------
E-15\0-3333333333333333-3333333333333333-00000000-110h11-6-66-6-4h6-

G---------------------------------------------------------------
D------------------55-555-55-3----------------------------------
A-----------------------------5-3-------------------------------
E-3333333333333333---------------5-1-00000000-110h11-6-66-6-4h6-
Comments