Fony - Chore Again Chords & Tabs

 

Chore Again Chords & Tabs

Fony Chords & Tabs

Version: 1 Type: Tab 0 ratings
1 star 2 stars 3 stars 4 stars 5 stars
comments

Chore Again Tab

   
Band:Fony
Song:Chore Again
Album:Routine Irregular
Tuning:C G C F A D (low to high)
Intro (clean)

|-----------------------------------|
|-----------------------------------|
|-----9-9-9-10-10-10-12-12-12-12-12-|
|-0-0-7-7-7--8--8--8-10-10-10-10-10-|
|-0-0-7-7-7--8--8--8-10-10-10-10-10-|
|-0-0-------------------------------|

(distortion)
|-------------------------------|--------------------|
|-------------------------------|--------------------|
|-------9-9-9-------12-12-12-12-|--------------------|
|-0-0-0-x-x-x-8-8-8--x--x--x--x-|-3-3-3-x-x-x-x-x-0~-|
|-0-0-0-7-7-7-8-8-8-10-10-10-10-|-3-3-3-x-x-x-x-x-0~-|
|-0-0-0-------8-8-8-------------|-3-3-3-x-x-x-x-x-0~-|

Verse (clean)
|---------------|
|---------------|
|----------10---|
|---7-7---8--8--|
|--7-----8----8-|
|-7-----8-------|

2nd Guitar Part (distortion)
|-------------------------------------|
|-------------------------------------|
|-------------------------------------|
|-------------------------------------|
|-0-0-0-7-7-7-8-8-8-10-10-10-10-10-10-|
|-0-0-0-7-7-7-8-8-8-10-10-10-10-10-10-|

Before Chorus (clean)

|------|
|------|
|------|
|---7~-|
|--7---|
|-7----|

Chorus (distortion)
|-------------------------------|----|
|-------------------------------|----|
|-------9-9-9-------12-12-12-12-|----|
|-0-0-0-x-x-x-8-8-8--x--x--x--x-|-0~-|
|-0-0-0-7-7-7-8-8-8-10-10-10-10-|-0~-|
|-0-0-0-------8-8-8-------------|-0~-|
[ Tab from: http://www.guitartabs.cc/tabs/f/fony/chore_again_tab.html ]
Bridge (Distortion)
|-----------------|
|-----------------|
|-----------------|
|-3-3-3-3-3-3-3-3-|
|-3-3-3-3-3-3-3-3-|
|-3-3-3-3-3-3-3-3-|

|----------------------------------|
|----------------------------------|
|--------9-9-9---------12-12-12-12-|
|-0-0-0--x-x-x--8-8-8---x--x--x--x-|
|-0-0-0--7-7-7--8-8-8--10-10-10-10-|
|-0-0-0---------8-8-8--------------|

|-----------------------------------------------|
|-----------------------------------------------|
|-----------------------------------------------|
|-12-12-12-12-12-7-7-3-3-3-10-10-10-10-10-6-6-5-|
|-12-12-12-12-12-7-7-3-3-3-10-10-10-10-10-6-6-5-|
|-12-12-12-12-12-7-7-3-3-3-10-10-10-10-10-6-6-5-|

|--------------------------------------------------|
|--------------------------------------------------|
|--------------------------------------------------|
|-12-12-12-12-12-7-7-3-3-3-10-10-10-10-10-6-6-5-5-5|
|-12-12-12-12-12-7-7-3-3-3-10-10-10-10-10-6-6-5-5-5|
|-12-12-12-12-12-7-7-3-3-3-10-10-10-10-10-6-6-5-5-5|

2nd Guitar Part (distortion)
|--------------------------------------------------|
|--------------------------------------------------|
|-7-7-7-7-7-9-9-12-12-12--5-5-5-5-5-13-13-12-12-12-|
|-x-x-x-x-x-x-x--x--x--x--x-x-x-x-x--x--x--x--x--x-|
|-5-5-5-5-5-7-7-10-10-10--3-3-3-3-3-11-10-10-10-10-|
|--------------------------------------------------|

|-------------------------------|
|-------------------------------|
|-17-17-17-17-17-13-13-12-12-12-|
|--x--x--x--x--x--x--x--x--x--x-|
|-15-15-15-15-15-11-11-10-10-10-|
|-------------------------------|

End With:
|----|
|----|
|----|
|-0~-|
|-0~-|
|-0~-|

x Mute
~ Let ring
Comments