Fono - Strangest Thing Chords & Tabs

 

Strangest Thing Chords & Tabs

Fono Chords & Tabs

Version: 1 Type: Bass Tab 0 ratings
1 star 2 stars 3 stars 4 stars 5 stars
comments

Strangest Thing Bass Tab

Strangest Thing
Artist - Fono
Album - Goes Around Comes Around
Copyright - Reunion Records INC.

Tabbed (with permission) by Nik Baker redfox_d@hotmail.com

Trak 05

Main Riff
G ----------------------------------|
D ----------------------------------|
A -2---5----2-----------------------|
E ---------------5------2-------5---|
[ Tab from: http://www.guitartabs.cc/tabs/f/fono/strangest_thing_btab.html ]
Then it goes something like this
G -------------------------------------------------------------------|
D ---2-2--2-2---0-0--0-0---2-2--2-2---0-0--0-0---2-2--2-2---0-0--0-0-|
A -------------------------------------------------------------------|
E -------------------------------------------------------------------|

G -----------------------|
D -----------------------|
A ---2-2--2-2---2-2--2-2-|
E -----------------------|

And then
G -----------------------------------------------------|
D -----------------------------------------------------|
A -2--2-2--2-2-2--0--0-0--0-0-0------------------------|
E --------------------------------------0--0-0--0-0-0--|

Any comments or suggestions please mail me redfox_d@hotmail.com . I am also 
writing some tabs to go along with these bass tabs.

Comments