Fono - Now Shes Chords & Tabs

 

Now Shes Chords & Tabs

Fono Chords & Tabs

Version: 1 Type: Bass Tab 0 ratings
1 star 2 stars 3 stars 4 stars 5 stars
comments

Now Shes Bass Tab

   
Now She's 24

Artist - Fono
Album - Goes Around Comes Around
Copyright - Reunion Records INC.

Tabbed (with permission) by Nik Baker redfox_d@hotmail.com


Now She's 24
Trak 07

After guitar intro
Riff A
G --------------------------------------------------------------------------------|
D -2---2-2--2-2-2-2---------------------------------------------------------------| Play this
A -----------------------5---5-5--5-5-5-5---4---4-4--4-4-4-4---3---3-3--3-3-3-3---| four times
E --------------------------------------------------------------------------------|
[ Tab from: http://www.guitartabs.cc/tabs/f/fono/now_shes_btab.html ]
Riff B
G -------------------------------------------2---2-2--2-2-2-2---5---5-5--5-5-5-5--|
D -2---2-2--2-2-2-2---5---5-5--5-5-5-5--------------------------------------------| Play this
A --------------------------------------------------------------------------------| twice
E --------------------------------------------------------------------------------|

G --0--0-5--5-5-5--3--3-2--2-2-2---|
D ---------------------------------|  Play this
A ---------------------------------|  four times
E ---------------------------------|

Riff C
G -0-0--4-4--0-0--4-4-h-5-p-4-------|
D ----------------------------------| Play this
A ----------------------------------| twice
E ----------------------------------|

G -12-12--16-16--12-12--16-16h17p16-|
D ----------------------------------| Play this
A ----------------------------------| twice
E ----------------------------------|

Any comments or suggestions please mail me redfox_d@hotmail.com . I am also 
writing some tabs to go along with these bass tabs.




Comments