Folk Implosion - Wide Web Chords & Tabs

 

Wide Web Chords & Tabs

Folk Implosion Chords & Tabs

Version: 1 Type: Bass Tab

Wide Web Bass Tab

   
Band: The Folk Implosion
Song: Wide Web
Album: Dare To Be Surprised
Bassist: John Davis/ Low Barlow
Tabber: Ricardo P.

regular tuning (e-a-d-g)

/ slide
~ hold
x mute note

regular tuning


Intro:
                     drums start.... 
g ----|--------------------------------------------------------------|
d --0-|0-0-0-0-0-0-0-0-0-0-0-0-0--0-4-5~5/6~6/7-0-0-0-0-0-4-5~5/6~6/7|
a ----|--------------------------------------------------------------|
E ----|--------------------------------------------------------------|

verse:

g -5--------------------|5--------------------|5--------------------|
d ---0-0-0-0-4-5~5/6~6/7|--0-0-0-0-4-5~5/6~6/7|--0-0-0-0-4-5~5/6~6/7|
a ----------------------|---------------------|---------------------|
E ----------------------|---------------------|---------------------|

g 5------------------|7|
d --0-0-0-4-5~5/6~6/7|-|
a -------------------|-|
E -------------------|-|

chorus:
 
g ---7--7----------7--7----------7--7--4/5/6---7--7--7--7|
d -------x-4/5/6-------x-4/5/6-------x-------------------|
a -5--5----------5--5----------5--5----------5--5--5--5--|
E -------------------------------------------------------|

then theres like an INTERLUDE thingie where the bass gets lost for a while but its kinda 

implicit so this works to keep the rythm, u can play it both ways like:

g --7-7-7-7-7-7-7-7-8-8-8-8-8-8-8-8-7-7-7-7-7-7-7-7-5-5-5-5-5-5-5-5
d -----------------------------------------------------------------x2
a -5-5-5-5-5-5-5-5-6-6-6-6-6-6-6-6-5-5-5-5-5-5-5-5-3-3-3-3-3-3-3-3-
E -----------------------------------------------------------------

or:
[ Tab from: http://www.guitartabs.cc/tabs/f/folk_implosion/wide_web_btab.html ]
g -----------------------------------------------------------------
d -----------------------------------------------------------------x2
a -5-5-5-5-5-5-5-5-6-6-6-6-6-6-6-6-5-5-5-5-5-5-5-5-3-3-3-3-3-3-3-3-
E -----------------------------------------------------------------

or even mix them one and one...

then back to the last verse:

g --------------------|--------------------|5--------------------|
d -0-0-0-0-4-5~5/6~6/7|-0-0-0-0-4-5~5/6~6/7|--0-0-0-0-4-5~5/6~6/7|
a --------------------|--------------------|---------------------|
E --------------------|--------------------|---------------------|

g 5------------------|7
d --0-0-0-4-5~5/6~6/7|-
a -------------------|-
E -------------------|-

..and if survival...
g ------------------|7--------------------|7--------------------|
d -0-0-0-4-5~5/6~6/7|--0-0-0-0-4-5~5/6~6/7|--0-0-0-0-4-5~5/6~6/7|
a ------------------|---------------------|---------------------|
E ------------------|---------------------|---------------------|

g 7------------------|7|
d --0-0-0-4-5~5/6~6/7|-|
a -------------------|-|
E -------------------|-|

chorus:
 
g ---7--7----------7--7----------7--7--4/5/6---7--7--7--7|
d -------x-4/5/6-------x-4/5/6-------x-------------------|
a -5--5----------5--5----------5--5----------5--5--5--5--|x1
E -------------------------------------------------------|


g ---7--7----------7--7----------7--7--4/5/6-----------------|... end
d -------x-4/5/6-------x-4/5/6-------x-----------------------|
a -5--5----------5--5----------5--5----------5-5-5-4/5-5-4/5-|x1
E -----------------------------------------------------------|


thats it again. cool, i hope u find it useful

***********comments corrections email irotinmyskin@gmail.com*************

folk implosion rules!