Foghat - Slow Ride Chords & Tabs

 

Slow Ride Chords & Tabs

Foghat Chords & Tabs

Version: 2 Type: Bass Tab 0 ratings
1 star 2 stars 3 stars 4 stars 5 stars
comments

Slow Ride Bass Tab

   
hey this is a great song, and i don't think
i have it completely down, but it sounds good
so try it out.

allright, most of it i play in slam-pop octaves in the key of
A

s=slam
p=pop
h=hammer on
po=pull off
/=slide
b=bend
br=bend release
x=mute
xp=muted pop
.1/2=dotted quarter note
q=quarter note
f=full note
e=eight note
[ Tab from: http://www.guitartabs.cc/tabs/f/foghat/slow_ride_btab_ver_2.html ]
intro (just go with the guitar and listen for the timing)
   ee   ee   q q  q  q    ee   ee   qq  q   q
g----------------------------------------------|
d----------------------------------------------|
a----------------------------------------------|
e--55-x-55---5-5--5b-5br--55-x-55---55--5b-5br-|

verse (a little more complicated, listen CLOSE for the timing)
   q q .1/2 q    q   q  q  .1/2q q
g-----------7p---5p------------------------|
d----7p--7p-------------7p--7p---5p--------|
a------------------------------------------|
e--5s----------------5s--------5s----------|

the chorus is just like the intro
sorry if i got the timing wrong, so just ignore it if you want
there are a few parts i left out like the solo and the bridge, but
i'll figure them out soon.
(look for us soon, PARADIGM, i'm the bassist in a three person band)
thx
Comments