Foghat - I Just Wanna Make Love To You Chords & Tabs

 

I Just Wanna Make Love To You Chords & Tabs

Foghat Chords & Tabs

Version: 2 Type: Bass Tab

I Just Wanna Make Love To You Bass Tab

Intro
G-------------|
D-------------|
A-------53----|
E-555555--  2-|2X

Verse
G-------------|
D-------------|
A-------5-3---|
E-5-5-5---- 1-|0x

Verse Ending Variation
G--------------|
D--------------|
A--------------|
E 5-----3--4-5-| play this after tenth verse riff

Repeat verse 9 times and play verse ending

Then play verse 4 more times
[ Tab from: http://www.guitartabs.cc/tabs/f/foghat/i_just_wanna_make_love_to_you_btab_ver_2.html ]
Chorus
G-----------------------------------------7-5----|
D-----------------------------------4-5-6-----5--|
A-5-5-O-345-5---------3-5-5-O-345-5--------------|
E-------------2-3-4-5----------------------------|

G-------------------------------|
D-------------------------------|
A-5-5-O-345-5---------3-7-------|
E-------------2-3-4-5------3--4-|

Verse again then solo.
To play the solo improvise using the notes of the scale that the verse
and chorus are built off of. Stay in key and you can figure it out.

The rest is nothing knew. Just another chorus and another verse.