Fogerty John - Centerfield Intro-riff Chords & Tabs

 

Centerfield Intro-riff Chords & Tabs

Fogerty John Chords & Tabs

Version: 2 Type: Tab 0 ratings
1 star 2 stars 3 stars 4 stars 5 stars
comments

Centerfield Intro-riff Tab

   
#----------------------------------PLEASE NOTE---------------------------------#
#This file is the author's own work and represents their interpretation of the #
#song. You may only use this file for private study, scholarship, or research. #
#------------------------------------------------------------------------------##
From: ascheng@netcom.com (Ed Cheng)

:CENTERFIELD

:by John Fogerty

intro/riff
[ Tab from: http://www.guitartabs.cc/tabs/f/fogerty_john/centerfield_intro_riff_tab_ver_2.html ]
e--------|-------------|----------------|-------------|----------------|
B--------|-------------|---0-3----------|-------------|----------------|
G--------|-----0-----2-|-0--------------|-----0-----2-|-0-2-4----------|
D--------|---2---0-4---|-------0--------|---2---0-4---|-------0--------|
A----0-2-|-3-----------|------------0-2-|-3-----------|------------0-2-|
E--3-----|-------------|----------3-----|-------------|----------3-----|

                                      
e--------------|----------------|
B--------------|---0-3----------|
G------0-----2-|-0--------------|
D----2---0-4---|-------0--------|
A--3-----------|------------0-2-|
E--------------|----------3-----|

... then play: |C   |G   |D   |    |G   |    |


:Brent Curry
Comments