Fobia - No Eres Yo Chords & Tabs

 

No Eres Yo Chords & Tabs

Fobia Chords & Tabs

Version: 1 Type: Tab

No Eres Yo Tab

   
--------------------|------------13-------13----------|
--------------------|------13-------13-------13-------|
--^^-^^-^-^-^^------|----14------------14-------------|
15-15-15-15-15-15---|15-------------------------------|
--------------------|---------------------------------|
--------------------|---------------------------------|

                                       x2
 F       A#      F         Dm
---------------------------13-------------------------|
-13------13------13--------15--X32--------------------|
-14--X8--15--X8--14--X16---14-------------------------|
-15------15------15-----------------------------------|
------------------------------------------------------|
------------------------------------------------------|


                               X2
 A#      F      D      G
------------------------------------|
------------------------------------|
----X16-----X16----X16----X16-------|
--------10------7------5------------|
-8------8-------5------3------------|
-6----------------------------------|


                       x3
 D      A#
-----------------------|
-----------------------|
----x8------x8---------|
-7-------8-------------|
-5-------6-------------|
-----------------------|

[ Tab from: http://www.guitartabs.cc/tabs/f/fobia/no_eres_yo_tab.html ]
--------------------|------------13-------13----------|
--------------------|------13-------13-------13-------|
--^^-^^-^-^-^^------|----14------------14-------------|
15-15-15-15-15-15---|15-------------------------------|
--------------------|---------------------------------|
--------------------|---------------------------------|


                                       x2
 F       A#      F         Dm
---------------------------13-------------------------|
-13------13------13--------15--X32--------------------|
-14--X8--15--X8--14--X16---14-------------------------|
-15------15------15-----------------------------------|
------------------------------------------------------|
------------------------------------------------------|


                               X2
 A#      F      D      G
------------------------------------|
------------------------------------|
----X16-----X16----X16----X16-------|
--------10------7------5------------|
-8------8-------5------3------------|
-6----------------------------------|


                     x10
 D      A#
-----------------------|
-----------------------|
----x8------x8---------|
-7-------8-------------|
-5-------6-------------|
-----------------------|

----------------------------------------|
----------------------------------------|
----------------------------------------|
-1414141414141414-1515-14-1515-14--1515-|
-1515151515151515-1515-15-1515-15--1515-|
----------------------------------------|