Fobia - Hipnot Zame Chords & Tabs

 

Hipnot Zame Chords & Tabs

Fobia Chords & Tabs

Version: 1 Type: Tab 0 ratings
1 star 2 stars 3 stars 4 stars 5 stars
comments

Hipnot Zame Tab

   
Fobia - Hipnotízame

Este riff acompaña los versos de la canción
Play this riff along the verses
E-----------------------------------------------------------------
B-----------------------0-------0---------------------------------
G------0-------0------7---7---7---7--------0---0---------0---0----
D----7-------7----0-5-------4----------4-----4---4---4-----4---4--
A--5-----5-4-------------------------2---2---------2---2----------
E-----------------------------------------------------------------

PUDE CERRAR LOS OJOS PERO NO PUDE DEJAR DE VERTE
Y DEJAR DE DORMIR MAS NO DEJAR DE SOÑAR

PUEDO CALLAR LAS VOCES MAS NO PUEDO DEJAR DE OIRTE
PUEDO DEJAR DE SER PERO NO PUEDO DEJAR DE ESTAR
 
CORO / CHORUS:
 C  D        Am F  
BESAME, HIPNOTÍZAME
           C
YA NO ME IMPORTA MÁS
          Gsus
RÓBAME EL ALMA, HECHÍZAME


E-----------------------------------------------------------------
B-----------------------0-------0---------------------------------
G------0-------0------7---7---7---7--------0---0---------0---0----
D----7-------7----0-5-------4----------4-----4---4---4-----4---4--
A--5-----5-4-------------------------2---2---------2---2----------
E-----------------------------------------------------------------
[ Tab from: http://www.guitartabs.cc/tabs/f/fobia/hipnot_zame_tab.html ]
PUEDO CALMAR MI MENTE MAS NO PUEDO CALMAR MI SANGRE
PUEDO SET SINCERO SIN  DEJAR DE MENTIR
  
PUEDO QUEDARME CERCA MAS NO PUEDO DEJAR DE HUIRTE
PUEDO CAMBIAR MI VIDA  MAS NO PUEDO CAMBIARME A MI
  
CORO:
 C  D        Am F  
BESAME, HIPNOTÍZAME
           C
YA NO ME IMPORTA MÁS
          Gsus
RÓBAME EL ALMA, HECHÍZAME
 C  D       Am  F
BESAME, INTOXÍCAME
          C
YA NO ME IMPORTA SER
          Gsus
UN SER SIN ALMA, ATRÁPAME

Distorsión

E-------------------------------------------------------------------------------------------------
B-------------------------------------------------------------------------------------------------
G---------10-10-10---------------------10-10-10---------------------------------------------5-5-5-
D--7-7-7--10-10-10--10-10-10----7-7-7--10-10-10--10-10-10-10-/-9-/10-10-10----7-7-7--3-3-3--5-5-5-
A--7-7-7---8--8--8--10-10-10----7-7-7---8--8--8--10-10-10-10-/-9-/10-10-10----7-7-7--3-3 3--3-3-3-
E--5-5-5-------------8--8--8----5-5-5-------------8--8--8--8-/-7-/-8--8--8----5-5-5--1-1-1--------

Solo de violín/ violin solo:
E-----------------------------12----------12-15----15----15----15----10----10----
B--13-12-13-12-13-12-13-12-13----12-10----------15----13----12----12----10----8--
G--------------------------------------------------------------------------------
D--------------------------------------------------------------------------------
A--------------------------------------------------------------------------------
E--------------------------------------------------------------------------------

 C  D        Am F  
BESAME, HIPNOTÍZAME
           C
YA NO ME IMPORTA MÁS
          Gsus
RÓBAME EL ALMA, HECHÍZAME
 C  D       Am  F
BESAME, INTOXÍCAME
          C
YA NO ME IMPORTA SER
          Gsus
UN SER SIN ALMA, ATRÁPAME

El solo de violín suena bien con un efecto que se llama slow attack. Es todo por ahora, adios.
Play the Violin solo with slow attack effect. That´s all, see you later. 

G sus
e-----3-------------
b-----3-------------
g-----5-------------
d-----5-------------
a-----5-------------
e-----3-------------
Comments