Fm Static - Definitely Maybe Chords & Tabs

 

Definitely Maybe Chords & Tabs

Fm Static Chords & Tabs

Version: 3 Type: Tab 0 ratings
1 star 2 stars 3 stars 4 stars 5 stars
comments

Definitely Maybe Tab

   
Definitely Maybe
by FM Static
Tabbed by Washu

Pattern A
|-------------------------------------|
|-------------------------------------|
|-----1--------1--------1--------2----|
|---2---2----2---2----2---2----2---2--| 
|----------0--------------------------|
|-0-----------------0--------2--------|

Pattern B
     E     B     C#mi    A 
|---7-7---2-2----4-4----0-0---|
|---9-9---4-4----5-5----2-2---|
|---9-9---4-4----6-6----2-2---|
|---9-9---4-4----6-6----2-2---| 
|---7-7---2-2----4-4----0-0---| 
|-----------------------------|

Pattern C
  E5   B5   C#mi             A
|-----------4-4-4-4-4-4-4-4--0-0-0-0-0-0-0-0--|
|-----------5-5-5-5-5-5-5-5--2-2-2-2-2-2-2-2--|
|------4-4--6-6-6-6-6-6-6-6--2-2-2-2-2-2-2-2--|
|-2-2--4-4--6-6-6-6-6-6-6-6--2-2-2-2-2-2-2-2--|
|-2-2--2-2--4-4-4-4-4-4-4-4--0-0-0-0-0-0-0-0--|
|-0-0-----------------------------------------|

Pattern D
  E                B                C#mi             A
|-0-0-0-0-0-0-0-0--2-2-2-2-2-2-2-2--4-4-4-4-4-4-4-4--0-0-0-0-0-0-0-0--|
|-0-0-0-0-0-0-0-0--4-4-4-4-4-4-4-4--5-5-5-5-5-5-5-5--2-2-2-2-2-2-2-2--|
|-1-1-1-1-1-1-1-1--4-4-4-4-4-4-4-4--6-6-6-6-6-6-6-6--2-2-2-2-2-2-2-2--|
|-2-2-2-2-2-2-2-2--4-4-4-4-4-4-4-4--6-6-6-6-6-6-6-6--2-2-2-2-2-2-2-2--|
|-2-2-2-2-2-2-2-2--2-2-2-2-2-2-2-2--4-4-4-4-4-4-4-4--0-0-0-0-0-0-0-0--|
|-0-0-0-0-0-0-0-0-----------------------------------------------------|
[ Tab from: http://www.guitartabs.cc/tabs/f/fm_static/definitely_maybe_tab_ver_3.html ]
Pattern E 
  E5   B5   E5   A5   E5   B5   F#5      B5
|-------------------------------------------------
|-------------------------------------------------
|------4-4-------2-2-------4-4-----------4-4-4-4--
|-2-2--4-4--2-2--2-2--2-2--4-4--4-4-4-4--4-4-4-4--
|-2-2--2-2--2-2--0-0--2-2--2-2--4-4-4-4--2-2-2-2--
|-0-0-------0-0-------0-0-------2-2-2-2-----------
  E5   A5   E5   B5   E5   A5   F#5      B5
 -------------------------------------------------|
 -------------------------------------------------|
 ------2-2-------4-4-------2-2-----------4-4-4-4--|
 -2-2--2-2--2-2--4-4--2-2--2-2--4-4-4-4--4-4-4-4--|
 -2-2--0-0--2-2--2-2--2-2--0-0--4-4-4-4--2-2-2-2--|
 -0-0-------0-0-------0-0-------2-2-2-2-----------|

Pattern F
  E5               A5               C#5              B5
|---------------------------------------------------------------------|
|---------------------------------------------------------------------|
|---------------------------------------------------------------------|
|------------------2-2-2-2-2-2-2-2--6-6-6-6-6-6-6-6--4-4-4-4-4-4-4-4--| 
|-2-2-2-2-2-2-2-2--0-0-0-0-0-0-0-0--4-4-4-4-4-4-4-4--2-2-2-2-2-2-2-2--|
|-0-0-0-0-0-0-0-0-----------------------------------------------------|

Pattern G
  E5      E    A5               C#5    C#mi  B5
|-------------------------------------------------------------|
|---------9-----------------------------5---------------------|
|---------9-----------------------------6---------------------|
|---------9----2-2-2-2-2-2-2-2--6-6-6-6-6----4-4-4-4-4-4-4-4--| 
|-2-2-2-2-7----0-0-0-0-0-0-0-0--4-4-4-4-4----2-2-2-2-2-2-2-2--|
|-0-0-0-0-----------------------------------------------------|

Song Order
A x 6
B x 2
C x 1
D x 1
E x 1
D x 2
F x 2
G x 2
C x 2 (w/ E5 octave higher)
D x 4 (double time)
 End on E
Comments