Fm Static - Crazy Mary Chords & Tabs

 

Crazy Mary Chords & Tabs

Fm Static Chords & Tabs

Version: 2 Type: Tab 0 ratings
1 star 2 stars 3 stars 4 stars 5 stars
comments

Crazy Mary Tab

   
        #----------------------------------PLEASE NOTE---------------------------------#
        #This file is the author's own work and represents their interpretation of the #
        #song. You may only use this file for private study, scholarship, or to rock!. #
        #------------------------------------------------------------------------------#



                                      FM Static
                                     Crazy  Mary

Key
---
V ^ - down/up stroke
/ or \ - slide up slide down
x - stratch
() - let it ring
~ - wiggle or trembelo
Intro
                                 (f5 arpegiated)
e------------------------------------------------|
B------------------------------------------------|
G-11-------------------------------11------------|
D---------11--11h13----------------------11------|
A-------------------11h13p11\9-----------------9-|
E------------------------------------------------|

Acoustic Guitar (just use the power chords alternative.. sounds good either way..)


  Crazy Mary's..           ..no one..    ..wishes she could.....find her way home..
                           <  use alternate picking >
e-9------9-               e-v-^------        e---------       e----------|
B-9------9-               B----------        B---------       B----------|
G-11-11-11-               G----------        G---------       G----------|
D-11-11-11-               D-9-9-9-9--        D-13-13-13       D-9-9-9-9--|
A-9--9--9--               A-9-9-9-9--        A-13-13-13       A-9-9-9-9--|
E----------               E-7-7-7-7--        E-11-11-11       E-7-7-7-7--|

..I could do..        ..for her... (this is the alternate for the 2nd time around..)
D-13-13-13            D-9-9-9-9--|
A-13-13-13            A-9-9-9-9--|
E-11-11-11            E-7-7-7-7--|

Kick your pedal

 Maybe if i!   v^v^ v^^v^vv v  v^v^        v ^
         e---------------------xxxx-----------------------------------------------|
         B---------------------xxxx-----------------------------------------------|
         G----------6x6xx-7-7--xxxx-----------------------------------------------|
         D-4-4-XXXX-6x6xx-7-7--xxxx--6-X-6-x-x-4-4-4--x-x-8-8-8-7-7-7-----10---6--|
         A-4-4-XXXX-4x4xx-6-6--xxxx--6-x-6-x-x-4-4-4--x-x-6-6-6-5-5-5-----8----4--|
         E-2-2-XXXX------------xxxx--4-x-4-x-x-2-2-2--x-x-------------------------|

         I'll  v^v^ v^^v^vv v  v^v^        v ^                        v ^    v ^   v ^
         e---------------------xxxx-----------------------------------------------------|
         B---------------------xxxx-----------------------------------------------------|
         G----------6x6xx-7-7--xxxx-----------------------------------------------------|
         D-4-4-XXXX-6x6xx-7-7--xxxx--6-X-6-x-x-4-4-4--x-x-8-8-8-7-7-7-----10--9--(11)---|
         A-4-4-XXXX-4x4xx-6-6--xxxx--6-x-6-x-x-4-4-4--x-x-6-6-6-5-5-5-----8---7--(9)----|
         E-2-2-XXXX------------xxxx--4-x-4-x-x-2-2-2--x-x-------------------------------|


Acoustic Guitar (there is an alternate chord for this part..)

and no one knows..
[ Tab from: http://www.guitartabs.cc/tabs/f/fm_static/crazy_mary_tab_ver_2.html ]
e-9------9-               e-v-^------        e---------       e----------|
B-9------9-               B----------        B---------       B----------|
G-11-11-11-               G----------        G---------       G----------|
D-11-11-11-               D-9-9-9-9--        D-13-13-13       D-8-8-8-8--|
A-9--9--9--               A-9-9-9-9--        A-13-13-13       A-8-8-8-8--|
E----------               E-7-7-7-7--        E-11-11-11       E-6-6-6-6--|


D-9-9-9-9--|
A-9-9-9-9--|
E-7-7-7-7--|

Build Up:

e--------------------------|
B--------------------------|
G-------66666-88888--------|
D-99999-66666-88888-66666--|
A-99999-44444-66666-66666--|
E-77777-------------44444--|


solo: - which plays over that build up.

e---------------------------------------------------------------|
B---------------------------------------------------------------|
G-11------------------------------------11-10-11-10--11---------|
D---------11--11h13---------------------------------------------|
A-------------------11h13p11\9----------------------------------|
E---------------------------------------------------------------|


e------------------------------------------------------------------------------------------------|
B-----14~----12~---11~--11h12p11--11-----------14~---12~------------------14---------------------|
G-------------------------------13------------------------13~-----*13^15-----15v13r11------------|
D-11-----11------11--11----------------11----11--11----11----------------------------13-11-------|
A-----------------------------------------------------------------------------------------13-11--|
E----------------------------------------------------------------------------------------------14|
                                                                  Hold that 13 bend and hit 14..

Chorus!
e---------------------xxxx-----------------------------------------------|
B---------------------xxxx-----------------------------------------------|
G----------6x6xx-7-7--xxxx-----------------------------------------------|
D-4-4-XXXX-6x6xx-7-7--xxxx--6-X-6-x-x-4-4-4--x-x-8-8-8-7-7-7-----10---6--|
A-4-4-XXXX-4x4xx-6-6--xxxx--6-x-6-x-x-4-4-4--x-x-6-6-6-5-5-5-----8----4--|
E-2-2-XXXX------------xxxx--4-x-4-x-x-2-2-2--x-x-------------------------|

I'll  v^v^ v^^v^vv v  v^v^        v ^                        v ^    v ^   v ^
e---------------------xxxx------------------------------------------------------|
B---------------------xxxx------------------------------------------------------|
G----------6x6xx-7-7--xxxx------------------------------------------------------|
D-4-4-XXXX-6x6xx-7-7--xxxx--6-X-6-x-x-4-4-4--x-x-8-8-8-7-7-7-----10----9---(11--|
A-4-4-XXXX-4x4xx-6-6--xxxx--6-x-6-x-x-4-4-4--x-x-6-6-6-5-5-5-----8-----7---(9)--|
E-2-2-XXXX------------xxxx--4-x-4-x-x-2-2-2--x-x--------------------------------|

                                                         or..   B-10-9-(11-| but the power
                                                                G----------| chords sound nicer
                                                                D-8--7-----|(9)


one last thing..
If you listen closely during the verses you'll hear..
e--------------------------------------------|
B--------------------------------------------|
G--------------------------------------------|
D------13--11-----10-11----------------------|
A----11---------11---------------------------|
E--9--------- 9------------------------------|
Comments