Flyleaf - There For You Chords & Tabs

 

There For You Chords & Tabs

Flyleaf Chords & Tabs

Version: 1 Type: Tab 0 ratings
1 star 2 stars 3 stars 4 stars 5 stars
comments

There For You Tab

Intro/Verse
[ Tab from: http://www.guitartabs.cc/tabs/f/flyleaf/there_for_you_tab.html ]
e|---------------------------------------------------------------------------|
b|--5----5-3-----3-8---7------7----------------------------------------------|
g|----0------0-------------0-------------------------------------------------|
d|---------------------------------------------------------------------------|
a|--3--3---2---2---7---5----5------------------------------------------------|
E|---------------------------------------------------------------------------|


e|----------------------------------------------|
b|--5----5-3-----3-7---7------7--87--------7----|
g|----0------0-------------0-----------0--------| (x 2)
d|----------------------------------------------|
a|--3--3---2---2---5---5----5------------5------|
E|----------------------------------------------|
Comments