Flyleaf - Perfect Chords & Tabs

 

Perfect Chords & Tabs

Flyleaf Chords & Tabs

Version: 1 Type: Tab 0 ratings
1 star 2 stars 3 stars 4 stars 5 stars
comments

Perfect Tab

intro/pre-chorus
e(--------------------------------------------)
b(--------------------------------------------)
g(---------------------------------------5555-)
d(--4-4-/9-999-4-4-/9-999-4-4-/9-999-7-5-5555-)
a(--4-4-/9-999-4-4-/9-999-4-4-/9-999-7-5-3333-)
D(--4-4-/9-999-4-4-/9-999-4-4-/9-999-7-5------)

pre-chorus(lead)
e(-------------------)
b(--8/11-11-11-11-11-)
g(-------------------)
d(-------------------)
a(-------------------)
D(-------------------)

verse
e(----------7-------7------7---------7---------7----7-)
b(--7-7---7---7---7---7h10---10-7h10---10-7h10---10---)
g(------9-------9-------------------------------------)
d(----------------------------------------------------)
a(----------------------------------------------------)
D(----------------------------------------------------)

chorus(x2)
e(-----------------)
b(-----------------)
g(-----------------)
d(--777x544x777222-)
a(--777x544x777222-)
D(--777x544x777222-)
[ Tab from: http://www.guitartabs.cc/tabs/f/flyleaf/perfect_tab.html ]
chorus(lead)(x2)
e(-----------)
b(--10-7-----)
g(-------9-7-)
d(-----------)
a(-----------)
D(-----------)

second post-chorus
e(---------------------------)
b(---------------------------)
g(---------------------------)
d(---------------------------)
a(---------------------------)
D(--222222220000000022222222-)
  pm........................

bridge
e(-------------------------)
b(-------------------------)
g(-------------------------)
d(-------------------------)
a(--2-2-0-0-2-2-0-0-555555-)
D(-------------------------)

bridge(lead)
e(--------------------------)
b(--------------------------)
g(--------------------------)
d(--10-10-10-10-10-10-10-10-)
a(--------------------------)
D(--------------------------)

second part of bridge is the pre-chorus with a different lead
e(---------------7/9-6/7-/9-7/9-7/5-5/7-)
b(--7-7-7-77-777------------------------)
g(--------------------------------------)
d(--------------------------------------)
a(--------------------------------------)
D(--------------------------------------)
Comments