Flyleaf - Fully Alive Chords & Tabs

 

Fully Alive Chords & Tabs

Flyleaf Chords & Tabs

Version: 1 Type: Bass Tab

Fully Alive Bass Tab

   
Song: Fully Alive
Album: Flyleaf
Band: Flyleaf
Tabbed By: Masterbasser36


Intro                   x2
G|---------||----------------------------|
D|---------||----------------------------|
A|-no bass-||----------------------------|
D|---------||-3-0-3-5-8-5-8-10-8-5-8-5-0-|


Verse                                         x2
G|-------------------------------------------|
D|-------------------------------------------|
A|-------------------------------------------|
D|-30--50--3-0-3-5-8-5-8-10-3-0-3-5-8-5-8-10-|

                       x1
G|-------------------------------------------|
D|-------------------------------------------|
A|-------------------------------------------|
D|-30--80--3-0-3-5-8-5-8-10-3-0-3-5-8-5-8-10-|

                       x1
G|-------------------------------------------|
D|-------------------------------------------|
A|-------------------------------------------|
D|-30--50--3-0-3-5-8-5-8-10-3-0-3-5-8-5-8-10-|


Chorus                                     x2
G|----------------------------------------|
D|----------------------------------------|
A|----------------------------------------|
D|-000000000000-888-555-888888888-3333-00-|

[ Tab from: http://www.guitartabs.cc/tabs/f/flyleaf/fully_alive_btab.html ]
Verse                        x2
G|--------------------------|
D|--------------------------|
A|--------------------------|
D|-30--50--3-0-3-5-8-5-8-10-|

             x1
G|--------------------------|
D|--------------------------|
A|--------------------------|
D|-30--80--3-0-3-5-8-5-8-10-|

             x1
G|------------------------------------|
D|------------------------------------|
A|------------------------------------|
D|-30--50--3-0-3-5-8-5-8-10-8-5-8-5-0-|


Chorus                                     x4
G|----------------------------------------|
D|----------------------------------------|
A|----------------------------------------|
D|-000000000000-888-555-888888888-3333-00-|


Bridge                                   x4
G|--------------------------------------|
D|--------------------------------------|
A|----------11111111----------1/5555555-|
D|-00000000----------33333333-----------|
                                               x4
G|--------------------------------------------|
D|--------------------------------------------|
A|--------------------------------------------|
D|-33333333-1010101010101010-8888888888888888-|


Outro                      
G|----------------------------|
D|----------------------------|
A|----------------------------|
D|-3-0-3-5-8-5-8-10-8-5-8-5-0-|