Flyleaf - Breath Today Chords & Tabs

 

Breath Today Chords & Tabs

Flyleaf Chords & Tabs

Version: 1 Type: Tab 0 ratings
1 star 2 stars 3 stars 4 stars 5 stars
comments

Breath Today Tab

Intro (Verse)
e|---------------------------------------------------------------------------|
B|---------------------------------------------------------------------------|
G|---------------------------------------------------------------------------|
D|---------------------------------------------------------------------------|
A|-99-99-99-5/7\5\4/5\4-----99-99-99-5/7\5\4/5\4----99-99-99-5/7\5\4/5\4-----|
D|-99-99-99-5/7\5\4/5\4-----99-99-99-5/7\5\4/5\4----99-99-99-5/7\5\4/5\4-----|
                           "You can only move..."
e|---------------------------------------------------------------------------|
B|---------------------------------------------------------------------------|
G|---------------------------------------------------------------------------|
D|---------------------------------------------------------------------------|
A|-99-99-99-5/7\5\4/5\4------------------------------------------------------|
D|-99-99-99-5/7\5\4/5\4------------------------------------------------------|
(99 part has distortion and the first 5/7 part)

Pre-Chorus				   Pre-Chorus #2
e|---------------------------------------|-----------------------------------|
B|---------------------------------------|-----------------------------------|
G|---------------------------------------|-----------------------------------|
D|-55555555\44444444/55555555\44444444---|-55555555\44444444\2222/5555\44444-|
A|-55555555\44444444/55555555\44444444---|-55555555\44444444\2222/5555\44444-|
D|-55555555\44444444/55555555\44444444---|-55555555\44444444\2222/5555\44444-|
"You can breathe today"
[ Tab from: http://www.guitartabs.cc/tabs/f/flyleaf/breath_today_tab.html ]
Chorus
e|---------------------------------------------------------------------------|
B|---------------------------------------------------------------------------|
G|---------------------------------------------------------------------------|
D|-9999-5555-7777-4-2--9999-5555-7777-4-2------------------------------------|
A|-9999-5555-7777-4-2--9999-5555-7777-4-2------------------------------------|
D|-9999-5555-7777-4-2--9999-5555-7777-4-2------------------------------------|
"So many lies swirling...  The empty shape in you..."

Pre-Bridge
e|---------------------------------------------------------------------------|
B|---------------------------------------------------------------------------|
G|---------------------------------------------------------------------------|
D|----------------------------------------9--5--7--4-2-----------------------|
A|----------------------------------------9--5--7--4-2-----------------------|
D|-2222/5555\444444444-2222/5555\44444----9--5--7--4-2-----------------------|
"BREATHE!!!" (I have yet to figure out the sorta mini solo for this part)

Bridge
e|---------------------------------------------------------------------------|
B|---------------------------------------------------------------------------|
G|---------------------------------------------------------------------------|
D|---------------------------------------------------------------------------|
A|-22--22-55-55\44--44-44-44--22--22-55-55\44--44-44-------------------------|
D|-22--22-55-55\44--44-44-44--22--22-55-55\44--44-44-------------------------|
"Big enough to fill the void that's inside of you..."

Outro
e|---------------------------------------------------------------------------|
B|---------------------------------------------------------------------------|
G|---------------------------------------------------------------------------|
D|-9999-5555-7777-4----------------------------------------------------------|
A|-9999-5555-7777-4----------------------------------------------------------|
D|-9999-5555-7777-4----------------------------------------------------------|
(also played at the end of the chorus before the Pre-Bridge)

Comments