Flying G Man - Untitled Love Chords & Tabs

 

Untitled Love Chords & Tabs

Flying G Man Chords & Tabs

Version: 2 Type: Tab 0 ratings
1 star 2 stars 3 stars 4 stars 5 stars
comments

Untitled Love Tab

#----------------------------------PLEASE NOTE--------------------------------#
#This file is the author's own work and represents their interpretation of the#
#song. You may only use this file for private study, scholarship, or research.#
#-----------------------------------------------------------------------------#
#-- File created with Instab - http://www.pconline.com/~smcarey/instab.html --#
#-----------------------------------------------------------------------------#

Author/Artist: Flyin G Man
Title: Untitled Love
Transcribed by: George Melvin
Email: pygmy01@hotmail.com

drop d tuning

---------------------------------------|--------------------------------------|
---------------------------------------|--------------------------------------|
---------------------------------------|--------------------------------------|
-0---0--0--3--0----0---0--0-3-0-1---rpt|-2---2-2-2-2-2-2-2-0--1---rpt---------|
-0---0--0--3--0----0---0--0-3-0-1------|-2---2-2-2-2-2-2-2-0--1---------------|
-0---0--0--3--0----0---0--0-3-0-1------|-2---2-2-2-2-2-2-2-0--1---------------|
  intro            certain rythm

------------------------------------------------------------------------------|
------------------------------------------------------------------------------|
------------------------------------------------------------------------------|
-0--0-0--3--0--0--0--0-3-0-1--------------------------------------------------|
-0--0-0--3--0--0--0--0-3-0-1-rpt----------------------------------------------|
-0--0-0--3--0--0--0--0-3-0-1--------------------------------------------------|
                                 then..

------------------------------------------------------------------------------|
------------------------------------------------------------------------------|
------------------------------------------------------------------------------|
-0--0-3-2--0--0--0--2--5b--0--0-3-2-0--0--0--2---------rpt--------------------|
-----------------------------------------------3b-----------------------------|
------------------------------------------------------------------------------|
 verse
[ Tab from: http://www.guitartabs.cc/tabs/f/flying_g_man/untitled_love_tab_ver_2.html ]
------------------------------------------------------------------------------|
------------------------------------------------------------------------------|
------------------------------------------------------------------------------|
-0-0-5-6-6-6-6-6-5-3--0-0-5-6-6-6-6-6-5-3--8-8-8-8-8-8-8-8-8/5-5-5-5-5-5-5-5\-|
-0-0-5-6-6-6-6-6-5-3--0-0-5-6-6-6-6-6-5-3--8-8-8-8-8-8-8-8-8/5-5-5-5-5-5-5-5\-|
-0-0-5-6-6-6-6-6-5-3--0-0-5-6-6-6-6-6-5-3--8-8-8-8-8-8-8-8-8/5-5-5-5-5-5-5-5\-|
 chorus

------------------------------------------------------------------------------|
------------------------------------------------------------------------------|
------------------------------------------------------------------------------|
-8-8-8-8-8-8-8-8/5-5-5-5-5-5-5-5\8-8-8-8-8-8-8-8\12-12-12-12-12-12-12-12-12---|
-8-8-8-8-8-8-8-8/5-5-5-5-5-5-5-5\8-8-8-8-8-8-8-8\12-12-12-12-12-12-12-12-12---|
-8-8-8-8-8-8-8-8/5-5-5-5-5-5-5-5\8-8-8-8-8-8-8-8\12-12-12-12-12-12-12-12-12---|


------------------------------------|-----------------------------------------|
------------------------------------|---------------7-------------------------|
------------------------------------|---7-7-7h9----7-7-8-7--------7p5---------|
------------------------------------|-/9--------8-7--------9-7/5------7p5-----|
------------------------------------|-----------------------------------------|
------------------------------------|-----------------------------------------|
 play first intro riff once let ring- solo

---------------------5-------------|------------------------------------------|
-----------------8p5---6-5/3-------|------------------------------------------|
-7p5-----7p5-----------------------|------------------------------------------|
-----7p5-----7p5-------------------|------------------------------------------|
-----------------------------------|------------------------------------------|
-----------------------------------|------------------------------------------|
                                      play intro bit but as verse then korus

------------------------------------------------------------------------------|
------------------------------------------------------------------------------|
------------------------------------------------------------------------------|
------------------------------------------------------------------------------|
------------------------------------------------------------------------------|
------------------------------------------------------------------------------|
Comments