Flying Dutchman - New Horizon Chords & Tabs

 

New Horizon Chords & Tabs

Flying Dutchman Chords & Tabs

Version: 1 Type: Tab 0 ratings
1 star 2 stars 3 stars 4 stars 5 stars
comments

New Horizon Tab

   
NEW HORIZON

FLYING DUTCHMAN


ALTERNATE GUITAR TUNING: D# X A# D# A# D#
[ Tab from: http://www.guitartabs.cc/tabs/f/flying_dutchman/new_horizon_tab.html ]
                    s                       s           h p
|---0---0--------------------0---0-----------------|---------0----
|----0---0----5--------7------0---0----5-------7---|----------0---
|-----0---0----5--------7------0---0----5-------7--|---0~2~0---0--
|---------------5--------7---------------5--~7---7-|--------------
|XXXXXXXXXXXXXXXXXXXXXXXXXXXXXXXXXXXXXXXXXXXXXXXXXX|XXXXXXXXXXXXXX
|-0---------5------5~7-----0---------5-----5~7-----|--0-----------

  h p              s       h p       h p  
-------0------------------------0---------0-----------------|
--------0-----5------7-----------0---------0----5------7----|
-0~2~0---0-----5------7---0~2~0---0-0~2~0---0----5------7---|
----------------5------7--------------------------5------7--|
XXXXXXXXXXXXXXXXXXXXXXXXXXXXXXXXXXXXXXXXXXXXXXXXXXXXXXXXXXXX|
-0----------5------~7-----0---------0---------5------7------|

Thats pretty much the pattern.




Comments