Flying Dutchman - Free Spirit Chords & Tabs

 

Free Spirit Chords & Tabs

Flying Dutchman Chords & Tabs

Version: 1 Type: Tab 0 ratings
1 star 2 stars 3 stars 4 stars 5 stars
comments

Free Spirit Tab

   
Flying Dutchman    "Free Spirit"


Alternate guitar tuning: D# x A# D# A# D#

Intro (repeat 4x)

     h      h p  
|----5~7-7--5~7~5-5-4-0---0----|
|----5---5--5-----5-5-0-----0--|
|------------------------------|
|------------------------------|
|xxxxxxxxxxxxxxxxxxxxxxxxxxxxxx|
|--0---------------------------|
[ Tab from: http://www.guitartabs.cc/tabs/f/flying_dutchman/free_spirit_tab.html ]
1st Verse (repeat 4x)         Chorus (repeat 2x)     "I believe in me(3x)"          "The free spirits"                              ""
                         p       h           h          
|------0----------5----------|--------------------7--|-------12-------------5-----|------5-----------|
|--------0-0----5--5-5-------|-----5-----0--0~7-7--7-|----12---12-12------5---5---|--5-----5-----5---|
|----0----0-----5-----5-5~0--|--0~5--5---0--0~7-7----|----0--------0--0~5-5-----5-|--5-5-----0~5-5---|
|---------------5-----5-5~0--|--0~5--5---0--0~7-7----|----0-----------0~5-5-------|--5-------0~5-5---|
|xxxxxxxxxxxxxxxxxxxxxxxxxxxx|xxxxxxxxxxxxxxxxxxxxxxx|xxxxxxxxxxxxxxxxxxxxxxxxxxxx|xxxxxxxxxxxxxxxxxx|
|--0----------5--------------|--5------0----7--------|--0-------------5-----------|--5---------------|


Lyrics

I might have lied once or twice
And I had hoped you'd write me a letter
I would have taken that advice
It would have helped me to get better

Chorus
Let the wind fill my wing
Pulling me high I sing
I believed in me
And I believe in you
And I believe we can see
The free spirits that we want to be yeah

I've taken a road I know well
One of love and of friendship
I know it is much too soon to tell
If broken dreams can be mended

Chorus




Comments