Flying Dutchman - Beg You Please Chords & Tabs

 

Beg You Please Chords & Tabs

Flying Dutchman Chords & Tabs

Version: 1 Type: Tab 0 ratings
1 star 2 stars 3 stars 4 stars 5 stars
comments

Beg You Please Tab

   
Flying Dutchman  "Beg You Please"

Guitar tuned to Eb/D#

Chords

   C     G     Am    F
|--0--|--3--|--0--|--1--|
|--1--|--3--|--1--|--1--|
|--0--|--0--|--2--|--2--|
|--2--|--0--|--2--|--3--|
|--3--|--2--|--0--|--x--|
|-----|--3--|-----|--1--|

[ Tab from: http://www.guitartabs.cc/tabs/f/flying_dutchman/beg_you_please_tab.html ]
Verse
   C      G      Am          F               C      G    Am         F
                  h      p             h                  h   h p       h
|-----------------------------------1-----|---0------3---------------------1--|
|--1------3------0~1--0-1~0---------------|---1------3-------0~1~0---------1--|
|----0-0-----0---------------2--2-----0~2-|---0--0---0---0~2--------2--0~2-2--|
|-----0-------0--0----------------3-------|---2------0---0~2---------------3--|
|--3--------------------------------------|--3-----------0--------------------|
|---------3------------------1------------|---------3---------------1---------|


Lyrics

I believe in being kind
To the weak, and to the blind
Because I know that someday
It'll be me, so I pray
And I beg you please

Chorus
Beg you please
Oh lord, will you lead?
I beg you please
Beg you please
Oh lord, will you lead?
Me back to thee

I won't knock on heaven's door
Until I'm tired, until I'm poor
And I hope it won't be too late
Will you know me, and call my name
Will you know me, and call my name

Chorus


Lead Rythym


|-----8-8------3-3------5-5----1-1-1-1---|
|-----8-8------3-3------5-5----1-1-1-1---|
|-----9-9------4-4------5-5----2-2-2-2~0-|
|----10-10-----5-5------7-7----3-3-3-----|
|----------------------------------------|
|--8--------3--------5-------1-----------|


Comments