Flying Blind - Smokescreen Chords & Tabs

 

Smokescreen Chords & Tabs

Flying Blind Chords & Tabs

Version: 3 Type: Tab 0 ratings
1 star 2 stars 3 stars 4 stars 5 stars
comments

Smokescreen Tab

   
Song: Smokescreen
Artist: Flying Blind
Album: American Pie 2 Soundtrack
Tuning: 1/2 step down 
Tabbed by: Kevin J

The other tab of Smokescreen on this site is a little off, so here are some improvements.

Part A
eb------------------------------------------------------------------------------------------------
Bb------------------------------------------------------------------------------------------------
Gb------------------------------------------------------------------------------------------------
Db------------------------------------------------------------------------------------------------
Ab------------------------------------------------------------------------------------------------
Eb--12xxxxxxxxxxxxx--7/9xxxxxxxxxxxxx--9/5xxxxxxxxxxxxx--5/7xxxxxxxxxxxxx---------------------- X2

All palm mutes with distortion above (x's marking times played, 16th notes)

Distorted parts B-E

Part B
eb------------------------------------------------------------------------------------------------
Bb------------------------------------------------------------------------------------------------
Gb------------------------------------------------------------------------------------------------
Db--14---14-14---14--14-14-14---11--11-11---11--11-11-11--7---7-7--7--7-7-7---9---9-9--9--9-9-9---
Ab--14---14-14---14--14-14-14---11--11-11---11--11-11-11--7---7-7--7--7-7-7---9---9-9--9--9-9-9---
Eb--12---12-12---12--12-12-12---9---9--9----9---9--9--9---5---5-5--5--5-5-5---7---7-7--7--7-7-7 X2


[ Tab from: http://www.guitartabs.cc/tabs/f/flying_blind/smokescreen_tab_ver_3.html ]
Part C
eb------------------------------------------------------------------------------------------------
Bb------------------------------------------------------------------------------------------------
Gb------------------------------------------------------------------------------------------------
Db--11xxxxxxxxxxx-7xxxxxxxxxxxxxx-9xxxxxxxxxxxxxx-14xxxxxxxxxxxxxx-11xxxxxxxxxxxxx-7xxxxxxxxxxxxxx
Ab--11xxxxxxxxxxx-7xxxxxxxxxxxxxx-9xxxxxxxxxxxxxx-14xxxxxxxxxxxxxx-11xxxxxxxxxxxxx-7xxxxxxxxxxxxxx
Eb--9xxxxxxxxxxxx-5xxxxxxxxxxxxxx-7xxxxxxxxxxxxxx-12xxxxxxxxxxxxxx-9xxxxxxxxxxxxxx-5xxxxxxxxxxxxxx

Part D
eb------------------------------------------------------------------------------------------------
Bb------------------------------------------------------------------------------------------------
Gb------------------------------------------------------------------------------------------------
Db--9--9--9--9---------2-4-2-2---2----------------------------------------------------------------
Ab--9--9--9--9---2-2-4---------4------------------------------------------------------------------
Eb--7--7--7--7------------------------------------------------------------------------------------

Repeat Part B

Part E (solo)
eb------------------------------------------------|-----------------------------------------------
Bb------------------------------------------------|-----------------------------------------------
Gb------------------------------------------------|-----------------------------------------------
Db--11--11--9--7---7---9--2---2---7--9---9---9----|-----------------------------------------------
Ab--11--11--9--7---7---9--2---2---7--9---9---9----|-----------------------------------------------
Eb--9---9---7--5---5---7--0---0---5--7---7---7--X2|-7xxxxxxxxxxxxxx7xxxxxxxxxxxx------------------

Repeat Part D
Repeat Part B

Distortion off

Part F (slowly)
eb------------------------------------------------------------------------------------------------
Bb------------------------------------------------------------------------------------------------
Gb------------------------------------------------------------------------------------------------
Db--14----------9---------11---------8------------------------------------------------------------
Ab--14----------9---------11---------8------------------------------------------------------------
Eb--12----------7---------9----------6-----X3---Fade out------------------------------------------
Comments