Fly My Pretties - Turn It Around Chords & Tabs

 

Turn It Around Chords & Tabs

Fly My Pretties Chords & Tabs

Version: 1 Type: Tab 0 ratings
1 star 2 stars 3 stars 4 stars 5 stars
comments

Turn It Around Tab

   
Fly My Pretties - Turn It Around
Tabbed by Vermox

Fly My Pretties, led by Barnaby Weir of Black Seeds fame and including Sam Scott, Toby
Laing, Mike Fabulous, Daniel Weetman, Nato, Brendan Moran, Age Pryor, Tessa Rain and Lee
Prebble, played a acoustic set at Bats Theatre in Wellington, New Zealand in 2004.

Strumming pattern:

      Em            G      G            D     Em
      D    u D u    D    u D u    D u   D u   D
e:---------0-0-0----2----2-2-2----2-2---3-3--------:
B:----0----0-0-0----2----2-2-2----2-2---2-2---0----:
G:----0----0-0-0----0----0-0-0----0-0---3-3---0----:
D:----2----2-2-2----0----0-0-0----0-0-0-0-0---2----:
A:----2----2-2-2----2----2-2-2----2-2---------2----:
E:--0-0----0-0-0--3-3----3-3-3--3-3-3-------0-0----:

d = strum down
u = strum up
[ Tab from: http://www.guitartabs.cc/tabs/f/fly_my_pretties/turn_it_around_tab.html ]
         Em                    G     G    D   Em
Tell me head to stop messing around
         Em                G      G      D    Em
Cause I couldn't take it again
         Em                   G     G     D    Em
When your heart just feels so down
         Em                    G     G    D    Em
And you don't want to take the blame

Deep inside you know there's something wrong
You don't know how to deal with it
I'm sorry that my words were cold
They seem to make you shiver within

               Em      G      G     D      Em
Lets turn it around, babe
		      Em      G      G    D    Em
Cause it's getting us down, yeah
		Em      G      G     D      Em
Lets turn it around, babe
		      Em      G      G     D   Em
Cause it's getting us down, yeah

Tell my eyes to stop making things up
It's only going to bring me down
Baby if you only knew that
I won't let it get in the way

Tell my head to stop messing around
Cause I couldn't take it again
When your heart just feels so down
And you don't want to take the blame

Lets turn it around, babe
Cause it's getting us down, yeah
Lets turn it around, babe
Cause it's getting us down, yeah

Final Riff:
e:---------------------------------------------:
B:--7-7--------7-7--------7-7--------7-7-------:
G:---------7-9--------7-9--------7-9--------7--:
D:------9----------9----------9----------9-----:
A:---------------------------------------------:
E:---------------------------------------------:
Comments