Flux Of Pink Indians - Fun Is Over Fits And Starts Chords & Tabs

 

Fun Is Over Fits And Starts Chords & Tabs

Flux Of Pink Indians Chords & Tabs

Version: 1 Type: Tab 0 ratings
1 star 2 stars 3 stars 4 stars 5 stars
comments

Fun Is Over Fits And Starts Tab

   
-----------------------------------------------------------------
Fun Is Over (Fits and Starts Album Version) - Flux of Pink Indians
-----------------------------------------------------------------
Tabbed by: Dillon
Email: Angelic_oioi_upstart@yahoo.com

Tuning:Standard

Verse:
e|---------------------------------------------------------------|
B|---------------------------------------------------------------|
G|-4444444---------4444444---------7777777-99----77--------------|
D|-4444444-5555555-4444444-5555555-7777777-99-99-77-99-----------|
A|-2222222-5555555-2222222-5555555-5555555-77-99-55-99-----------|
E|---------3333333---------3333333------------77----77-----------|
[ Tab from: http://www.guitartabs.cc/tabs/f/flux_of_pink_indians/fun_is_over_fits_and_starts_tab.html ]
Chorus:
e|---------------------------------------------------------------|
B|---------------------------------------------------------------|
G|---------------------------------------------------------------|
D|-9-------------------------------------------------------------|
A|-9-------------------------------------------------------------|
E|-7-------------------------------------------------------------|

| / slide up
| \ slide down
| h hammer-on
| p pull-off
| ~ vibrato
| + harmonic
| x Mute note

#----------------------------------PLEASE NOTE---------------------------------#
#This file is the author's own work and represents their interpretation of the #
#song. You may only use this file for private study, scholarship, or research. #
#------------------------------------------------------------------------------#
Comments