Flotsam And Jetsam - Doomsday For The Deciever Chords & Tabs

 

Doomsday For The Deciever Chords & Tabs

Flotsam And Jetsam Chords & Tabs

Version: 1 Type: Tab 0 ratings
1 star 2 stars 3 stars 4 stars 5 stars
comments

Doomsday For The Deciever Tab

   
Artist: Flotsam & Jetsam
Song: Doomsday for the Deciever
Album: Doomsday for the Deciever
Tab: Veneficus

Listen to song for timing

Repeat each
           Bm                                              Bm7/A
----------------------2------------------------------------------2---------------|
-----------------3--------3--------------------------------3--------3------------|
------------4------------------4----------------------4------------------4-------|
--------4---------------------------4-------------4---------------------------4--|
---2------------------------------------------0----------------------------------|
---------------------------------------------------------------------------------|
 G add 6 add 5                                       Fsharp7 add 4
----------------------0----------------------------------------0-------------|
----------------2----------2------------------------------0------0-----------|
----------4---------------------4--------------------3---------------3-------|
-----0-------------------------------0----------4-------------------------4--|
-----------------------------------------------------------------------------|
3--------------------------------------------2-------------------------------|


Now comes the fun part...

-----------------------------------------14----17----14------------------------------|
-----------------------------------15------------------------15------------15--------|
-----16~-------------------16------------------------------------16--------------14--|
-------------------------------------------------------------------------------------|
-------------------------------------------------------------------------------------|
-------------------------------------------------------------------------------------|
[ Tab from: http://www.guitartabs.cc/tabs/f/flotsam_and_jetsam/doomsday_for_the_deciever_tab.html ]
-----------------------------------------14----17----14-----------------------------------|
-----------------------------------15------------------------15------------15-------------|
-----16~-------------------16------------------------------------16-----------------------|
--------------------------------------------------------------------------------------17--|
------------------------------------------------------------------------------------------|
------------------------------------------------------------------------------------------|

-----------------------------------------14----17----14-------------------------------|
-----------------------------------15------------------------15------------15-----14--|
-----16~-------------------16------------------------------------16-------------------|
--------------------------------------------------------------------------------------|
--------------------------------------------------------------------------------------|
--------------------------------------------------------------------------------------|

-----------------------------------------------------------------|
-------------15----17----15---17---15---17-----------------------|
-----16----------------------------------------------16----------|
-----------------------------------------------------------------|
-----------------------------------------------------------------|
-----------------------------------------------------------------|
_________________________________________________________________

      Play a whole bunch of times                                 ending

-------22--19--21----------19-------------------------22--19--21-------19--21--19-------19----|
-------------------------22---------20---22--19------------------------22-----------------22--|
----------------------------------------------------------------------------------------------|
----------------------------------------------------------------------------------------------|
----------------------------------------------------------------------------------------------|
----------------------------------------------------------------------------------------------|

I hope to finish the rest of the song.... when i have more time, possibly... and maybe 
put more Flotsam & Jetsam songs on here....

\m/ FLOTSAM & JETSAM \m/
Comments