Florida Sessions - Song For An Unsigned Band Chords & Tabs

 

Song For An Unsigned Band Chords & Tabs

Florida Sessions Chords & Tabs

Version: 1 Type: Tab 0 ratings
1 star 2 stars 3 stars 4 stars 5 stars
comments

Song For An Unsigned Band Tab

   
Song For an Unsigned Band
Florida Sessions

Intro and verses - 


    D       Em7     G
e |-2-2-2-2-3-3-3-3-3-3-3-3-3-3-3-3----|
B |-3-3-3-3-3-3-3-3-3-3-3-3-3-3-3-3----|
G |-2-2-2-2-0-0-0-0-0-0-0-0-0-0-0-0----|
D |---------2-2-2-2-0-0-0-0-0-0-0-0----|
A |---------2-2-2-2-2-2-2-2-2-2-2-2----|
E |---------0-0-0-0-3-3-3-3-3-3-3-3----|


Pre Chorus - 

    Em7     G       D    Em7 D
e |-3-3-3-3-3-3-3-3-2-2-2-3-2-2-2-2----|
B |-3-3-3-3-3-3-3-3-3-3-3-3-3-3-3-3----|
G |-0-0-0-0-0-0-0-0-2-2-2-0-2-2-2-2----|
D |-2-2-2-2-0-0-0-0-------2------------|
A |-2-2-2-2-2-2-2-2-------2------------|
E |-0-0-0-0-3-3-3-3-------0------------|
[ Tab from: http://www.guitartabs.cc/tabs/f/florida_sessions/song_for_an_unsigned_band_tab.html ]
2x and then - 

    Em7     G       Asus4/G
e |-3-3-3-3-3-3-3-3-3-3-3-3-3-3-3-3----|
B |-3-3-3-3-3-3-3-3-3-3-3-3-3-3-3-3----|
G |-0-0-0-0-0-0-0-0-2-2-2-2-2-2-2-2----|
D |-2-2-2-2-0-0-0-0-2-2-2-2-2-2-2-2----|
A |-2-2-2-2-2-2-2-2-0-0-0-0-0-0-0-0----|
E |-0-0-0-0-3-3-3-3--------------------|

  "We'll find our way back hoooooome

Chorus - 

    D       Em7     G
e |-2-2-2-2-3-3-3-3-3-3-3-3-3-3-3-3----|
B |-3-3-3-3-3-3-3-3-3-3-3-3-3-3-3-3----|
G |-2-2-2-2-0-0-0-0-0-0-0-0-0-0-0-0----|
D |---------2-2-2-2-0-0-0-0-0-0-2-0----|
A |---------2-2-2-2-2-2-2-2-2-x-2-x----|
E |---------0-0-0-0-3-3-3-3-3-2-0-2----|


That's the entire song - have fun...




Comments