Florence And The Machine - Cosmic Love Chords & Tabs

 

Florence And The Machine Chords & Tabs

Version: 1 Type: Tab 0 ratings
1 star 2 stars 3 stars 4 stars 5 stars
comments

Cosmic Love Tab

   
-------------------------------------------------------------------------------
    Cosmic Love - Florence and the Machine
-------------------------------------------------------------------------------
Hey so this is the first time I've tabbed something up here but I found this video http://www.youtube.com/watch?v=3Ine77S1LWo
and decided I wanted to play it and once I had it I said why not, so here it is.
This was a version they recorded for Last Fm with just Florence and the guitarist.

Tuning:EADGBe

Intro:

e|---------------------------------------------------------------------------|
B|-----1---------8---------5------------------1---------8---------5----------|
G|-----2---------9---------5------------------2---------9---------5----------|
D|---------------------------------------------------------------------------|
A|-----3--------10---------7------------------3--------10---------7----------|
E|---------------------------------------------------------------------------|

Verse 1: x4

e|----------------------------------------------|
B|---------------8---------------------8--------|
G|---------10------10----10----9---------9----9-|
D|---10-10----10------10----10---10-10-----10---|
A|----------------------------------------------|
E|----------------------------------------------|

e|----------------------------------------------|
B|-------------10------------------10-9---------|
G|--------9-------9----9------9------------9----|
D|-----10---10------10-----10---10------10------|
A|---0-------------------0----------------------|
E|----------------------------------------------|

Chorus 1: x4

e|---1111----8-8-8-8-----5555--------|
B|---1111----8-8-8-8-----5555--------|
G|---2222----9-9-9-9-----5555--------|
D|---3333----10101010----7777--------|
A|---3333----10101010----7777--------|
E|---1111----8-8-8-8-----5555--------|

Verse 2: x4

e|----------------------------------------------|
B|---------------8---------------------8--------|
G|---------10------10----10----9---------9----9-|
D|---10-10----10------10----10---10-10-----10---|
A|----------------------------------------------|
E|----------------------------------------------|

e|----------------------------------------------|
B|-------------10------------------10-9---------|
G|--------9-------9----9------9------------9----|
D|-----10---10------10-----10---10------10------|
A|---0-------------------0----------------------|
E|----------------------------------------------|

Chorus 2:


e|---0000----0000----0000--------|
B|---1111----1111----1111--------|
G|---2222----0000----2222--------|
D|---3333----2222----2222--------|
A|---0000----3333----------------|
E|-------------------------------|
[ Tab from: http://www.guitartabs.cc/tabs/f/florence_and_the_machine/cosmic_love_tab.html ]
e|---1111----8-8-8-8-----5555--------|
B|---1111----8-8-8-8-----5555--------|
G|---2222----9-9-9-9-----5555--------|
D|---3333----10101010----7777--------|
A|---3333----10101010----7777--------|
E|---1111----8-8-8-8-----5555--------|

(this next bit I'm just giving you rough guideline for the pattern you play, you also 
some of the other strings around the ones your playing for some volume)

x4                                                   first three times

e|--------------------------------------------------|---------3-0-----|
B|-----------1---------------1---------------3-1----|-----------------|
G|-------2-----2---2-----0-----0---0-----2---------2|-----2--------2--|
D|-----3---3-----3-----2---2-----2-----2---2-----2--|---2---2----2----|
A|---0---------------3---------------0--------------|-0---------------|
E|--------------------------------------------------|-----------------|

last time

e|---0-------|
B|----1------|
G|-----2-----|
D|------2----|
A|-------0---|
E|--------0--|

Just Flo singing...

Quiet Chorus: x4

e|----------------------------------------------|
B|---------------8---------------------8--------|
G|---------10------10----10----9---------9----9-|
D|---10-10----10------10----10---10-10-----10---|
A|----------------------------------------------|
E|----------------------------------------------|

e|----------------------------------------------|
B|-------------10------------------10-9---------|
G|--------9-------9----9------9------------9----|
D|-----10---10------10-----10---10------10------|
A|---0-------------------0----------------------|
E|----------------------------------------------|

Last Chorus: x4

e|-----------3-1------------------------------------------------------|
B|---------------------------1---------------3-1-------------1--------|
G|-------2---------2-----0-----0---0-----2---------2-----2-----2---2--|
D|-----3---3-----3-----2---2-----2-----2---2-----2-----2---2-----2----|
A|---0---------------3---------------0---------------0----------------|
E|--------------------------------------------------------------------|

Outro:

|Fmaj7|C|Am| x4

Slowing it down: x2                                 play only on the first

e|-----------3-1------------------------------------|------------------|
B|---------------------------1---------------3-1----|---------1--------|
G|-------2---------2-----0-----0---0-----2---------2|-----2-----2---2--|
D|-----3---3-----3-----2---2-----2-----2---2-----2--|---2---2-----2----|
A|---0---------------3---------------0--------------|-0----------------|
E|--------------------------------------------------|------------------|

to finish

e|---0-------|
B|----1------|
G|-----2-----|
D|------2----|
A|-------0---|
E|--------0--|

And that's it!
Please rate and leave comments, any corrections just email me.

And just quickly because I get irritated when people don't say what chords are what:

  Fmaj7     C       Am

e|--0--|e|--0--|e|--0--|
B|--1--|B|--1--|B|--1--|
G|--2--|G|--0--|G|--2--|
D|--3--|D|--2--|D|--2--|
A|--0--|A|--3--|A|--0--|
E|--0--|E|--0--|E|--0--|
Comments