Flop Poppy - Cinta Original Chords & Tabs

 

Cinta Original Chords & Tabs

Flop Poppy Chords & Tabs

Version: 1 Type: Tab 0 ratings
1 star 2 stars 3 stars 4 stars 5 stars
comments

Cinta Original Tab

   
Cinta
Flop Poppy
chord by asroules@yahoo.com
Let's check it out!


standard tuning

intro:

1st player

G             Am   C             D 2x
---------------------------------------
-----10-8--7---------------------------
---7--------7--------------------------
--7----------7-5---4-5-4---------------
------------------------5--------------
-------------------------5-3-2---3-----

2nd player

G             Am      C           D 2x
---10--8--7-8-7---|--------------------
--8------------8--|----------/---------
-7--7-9---------7-|---------/----------
------------------|--------/-----------
------------------|-------/------------
------------------|--------------------


G                   Am          C   D
Dan telah ku nyanyikan kau lagu cinta
G                  Am
Seindahnya sinar mentari
       C              D
Seanggunnya sinar rembulan
G               Am             C   D
Dan telah kunyanyikan kau lagu rindu
        G             Am         
Kerna sesungguhnya hati ini 
        C            D
Masih lagi lemas dalam kerinduan



chorus:

Em   C
Cintaku
              G           D
Disetiap kalinya tak jemu-jemu
Em    C
Cintaku
            G   D
Nyanyikan lagu ini

Repeat chorus
                  G
Penawar rindu


riff:
[ Tab from: http://www.guitartabs.cc/tabs/f/flop_poppy/cinta_original_tab.html ]
G           Am         C     D       G
-----------------------10-8-7-8-7-8-7--
-----------7-8-7-7-8-10--------------8-
--------7-9-----9---------------------7
-5-7-7-9-------------------------------
---------------------------------------
---------------------------------------

 Am         C       D            G
---------------------------------------
---------------------------------------
---5-4-4-5-4---------------------------
------------5--------------------------
---------------------------------------
---------------------------------------




bridge:

                Em       C
Dan telah kusebutkan namamu
        G               Bm
Dalam doaku di setiap harinya
         C        
Agar kau kembali
                  D
Mengenangkan hati & perasaan


Am        C                D        G
---------------------------10-8-7-8-10-
-------------7-7-8-7-7-8-10------------
----------7-9-------9------------------
-5-7-7-9-------------------------------
---------------------------------------
---------------------------------------

                               ~~     ~~~
-8-7---------------10----8-7-8-7-------
----8----------8----------------8------
-----7---------------------------7-5-4-
---------------------------------------
---------------------------------------
---------------------------------------



G Am C D

Ini bukan yang pertama kalinya

Cinta ku pergi



chorus
Comments