Flogging Molly - Swagger Chords & Tabs

 

Swagger Chords & Tabs

Flogging Molly Chords & Tabs

Version: 2 Type: Tab 0 ratings
1 star 2 stars 3 stars 4 stars 5 stars
comments

Swagger Tab

SWAGGER - Flogging Molly 

Corrected by Petruchio
[ Tab from: http://www.guitartabs.cc/tabs/f/flogging_molly/swagger_tab_ver_2.html ]
e|------------------------------------------------------------| 
B|----------------------------2-22-1---------2-22-1-----------| 
G|--------------------2-----2--------4-2----2--------4-2------| 
D|------------000-2-4-----------------------------------------| 
A|--0--2--4---------------------------------------------------| 
E|------------------------------------------------------------| 

e|------------------| 
B|------------------| 
G|--2-4-2-0---------| 
D|---------4-2------| 
A|------------------| 
E|------------------| repeat
Comments