Flogging Molly - Swagger Chords & Tabs

 

Swagger Chords & Tabs

Flogging Molly Chords & Tabs

Version: 1 Type: Tab 0 ratings
1 star 2 stars 3 stars 4 stars 5 stars
comments

Swagger Tab

------------------------------------------------------------------------------- 
                        SWAGGER - Flogging Molly 
-------------------------------------------------------------------------------
By: Satan Clause 
[ Tab from: http://www.guitartabs.cc/tabs/f/flogging_molly/swagger_tab.html ]
e|------------------------------------------------------------| 
B|------------------------------------------------------------| 
G|----------------------------7-77-6---------7-77-6-----------| 
D|--------------------7-----7--------9-7----7--------9-7------| 
A|--0--2--4---555-7-9-----------------------------------------| 
E|------------------------------------------------------------| 

e|------------------| 
B|------------------| 
G|------------------| 
D|--7-9-7-5---------| 
A|---------9-7------| 
E|------------------| repeat 

-------------------------------------------------------------------------------
Comments