Flogging Molly - Spoken Wheel Chords & Tabs

 

Spoken Wheel Chords & Tabs

Flogging Molly Chords & Tabs

Version: 1 Type: Tab 0 ratings
1 star 2 stars 3 stars 4 stars 5 stars
comments

Spoken Wheel Tab

   
tabbed by Bert Molenaar (aka, Part III)

band:		Flogging Molly
song:		The Spoken Wheel
album:		Within A Mile From Home


nice easy song by a great band




  Bb                     F# 
Your passin' broke the silence
  D                 A
On that dark October day
  Bb                     F# 
The sun was headin' for the west
  D                 A
As it did I heard you say
 

  Bb                     F# 
I set my sail for a gentle breeze
  D                            A
Now I leave this world as it was meant to be
  

  Bb           F#           G    A      D
And you, did you listen to anything I said?
  Bb        F#       D
Did you ever listen to me?


etc.

[ Tab from: http://www.guitartabs.cc/tabs/f/flogging_molly/spoken_wheel_tab.html ]
(2:11)
e|-----------------------------------------|
B|-------3---------2------------3~--3------|
G|---------4---------2--------2-------2----|
D|-----4---------2---------0------------0--|x4
A|--2---------0---------0------------------|
E|-----------------------------------------|

e|-----------------------------------------|
B|-------3---------2----------3~-----------|
G|---------4---------2-----------4-4~--4---|
D|-----4---------2---------5-------------5-|
A|--2---------0---------5------------------|
E|-----------------------------------------|

e|-----------------------------------------|
B|-------3---------2------------3~--3------|
G|---------4---------2--------2-------2----|
D|-----4---------2---------0------------0--|
A|--2---------0---------0------------------|
E|-----------------------------------------|



e|------------------------------------------------2~-|
B|-------3---------2--------3--------2--------3------|
G|---------4---------3--------4--------2--------4----|
D|-----4---------4--------5--------2--------4--------|
A|--2---------4--------5--------0--------2-----------|
E|---------------------------------------------------|


enjoy,
for corrections, email me
bad6relgion@hotmail.com
Comments