Flock Of Seagulls - I Ran Chords & Tabs

 

I Ran Chords & Tabs

Flock Of Seagulls Chords & Tabs

Version: 2 Type: Tab 3 ratings
1 star 2 stars 3 stars 4 stars 5 stars
comments

I Ran Tab

   
Intro
( starts roughly 40 seconds into the song , has the delay effect on)

e------------------15---------------------------15-----
b------------------------------------------------------
g---14----------------------------14-------------------
d------------------------------------------------------
a------------------------------------------------------
e------------------------------------------------------

(delay off)

e-------------------------------------------------------
b-------------------------------------------------------
g--10-hold------------12--hold------------14--hold------
d-------------------------------------------------------
a-------------------------------------------------------
e-------------------------------------------------------

Main Riff

e--------------------------------------------------------------------------
b--5-5-5-------------------------------5-5-5-------------------------------
g---------7-------------------------------------7--------------------------
d------------7---7---7---7---7---7---7---------7---7---7---7---7---7---7---
a---------------7---7---7---7---7---7-------------7---7---7---7---7---7----
e--------------------------------------------------------------------------

e--------------------------------------------------------------------
b--5-5-5-------------------------------------------------------------
g--------7-----------------------------------------------------------
d----------5---5---5---5---5---5---5---5---5---5---5---5---5---5-----
a------------5---5---5---5---5---5---5---5---5---5---5---5---5-------
e--------------------------------------------------------------------
e-------------------------------------------------
b-------------------------------------------------
g--------5----7>9---------------------------------
d---7-7---7------------7---7---7---7---7---7---7--
a---------------------7---7---7---7---7---7-------
e-------------------------------------------------

Riff C
(this is played 1 time after solo 1 to take the place of riff A. But only the first time!)
(also the delay effect is on 4 this)
e------------------------------15-----15-----15---
b-------------------------------------------------
g--14--------------14-----------------------------
d-------------------------------------------------
a-------------------------------------------------
e-------------------------------------------------


Chorus

e--------------------------------------------------------------
a--3---5---3---1---------1---3---1---3---5---3---1-------------
g---------------------2---------------------------------2-0-2--
d--------------------------------------------------------------
a--------------------------------------------------------------
e--------------------------------------------------------------
[ Tab from: http://www.guitartabs.cc/tabs/f/flock_of_seagulls/i_ran_tab_ver_2.html ]
e-----------------------------------------------------------
b--3---5---3---1---------1---3---1---3---5--5---3------3----
g---------------------2----------------------------------5--
d-----------------------------------------------------------
a-----------------------------------------------------------
e-----------------------------------------------------------

Solo 1
e-----------------------------
b--10-10-10-10--8--10--8--10--
g-----------------------------
d-----------------------------
a-----------------------------
e-----------------------------






e--------------------------------
b-10-10-10-10--8--8---------8----
g---------------------------9----
d--------------------------------
a--------------------------------
e--------------------------------

e--------------------------------
b-11^-11^-11^--10--10--8--10-----
g--------------------------------
d--------------------------------
a--------------------------------
e--------------------------------





e-----------------------------------
b-10--10--10--10--8--8-----8--------
g------------------------------9----
d-----------------------------------
a-----------------------------------
e-----------------------------------

e------------------10-8-8--------8------8-12-12-10-10-8-10--
b-----------------------------10----10----------------------
g-----------------------------------------------------------
d--9--/--15-------------------------------------------------
a-----------------------------------------------------------
e-----------------------------------------------------------

e--10-12-10-8---------8-10-8-10-12-12-10-10-8-10-----
b-------------------10-------------------------------
g----------------------------------------------------
d----------------------------------------------------
a----------------------------------------------------
e----------------------------------------------------
Solo 2/outro

(Do this part 12x)
e---------------------------------
b-17-18-18-17-17-15-hold last-----
g---------------------------------
d---------------------------------
a---------------------------------
e---------------------------------

(on the 13th time,play this)
e-------------------------------------------------------
b-17-18-18-17-17-15----15----15-17-17-15---15-----------
g---------------------------17----17-------------17-----
d-------------------------------------------------------
a-------------------------------------------------------
e-------------------------------------------------------

(echo effect back on 4 this part)
e---------------------
b---------------------
g---14----------------
d---------------------
a---------------------
e---------------------

__________________________________________________________

 order of the song

intro
Main riff
Chorus
Solo 1
riff C
Main Riff
Chorus
Chorus
solo 2/outro
Comments