Floater - Independence Day Chords & Tabs

 

Independence Day Chords & Tabs

Floater Chords & Tabs

Version: 1 Type: Bass Tab 0 ratings
1 star 2 stars 3 stars 4 stars 5 stars
comments

Independence Day Bass Tab

   
FTH80:F#C#G D#; Generated by Fast Tab, do not erase
====================
>From            : Mexipad134
Artist          : FLOATER
Bass Performance: Independance Day
Comments:       : off of burning sosobra,
i love this band
---
Strings: D#,G ,C#,F#
Symbols explanations:
  H: hammer on  P: pull off
  +: slap       .: pop
  \: slide up   /: slide down
  --x~~x~~x: triplets
====================

|   q  q  q  q  q  q  q  q  q  q  q  q  q  q  q  q                               
F#-------------------------------------------------------------------------------
C#-----------0--2--2--0--------------0--2--2--0----------------------------------
G --0--0--3--------------3--0--0--3--------------3-------------------------------
D#-------------------------------------------------------------------------------
>    riff one                                                                          

  
|   q  q  q  q  w  q  q  q  q  q  q  q  q                                        
F#-------------------------------------------------------------------------------
C#-----------2--3--------------2--3--2-------------------------------------------
G --------3-----------------3-----------3----------------------------------------
D#--1--1-----------0--1--1-------------------------------------------------------
[ Tab from: http://www.guitartabs.cc/tabs/f/floater/independence_day_btab.html ]
>      riff part 2                                                                     
     
|   q  q  q  q  q  e  e  e  e  e  e  e  e  e  e                                  
F#-------------------------------------------------------------------------------
C#-------------------------------------------------------------------------------
G --3--3--0--3--3----------------------------------------------------------------
D#-----------------3--3--0--3--3--5--3--5--3--5----------------------------------
>   chorus                                                                             
|   q  q  q  q  q  q  q  q  q                                                    
F#-------------------------------------------------------------------------------
C#-----------2--0--0--2----------------------------------------------------------
G --0--0--3--------------3--0----------------------------------------------------
D#-------------------------------------------------------------------------------
>   "i still remember everything"                                                      
                       
|   q  q  q  q                                                                   
F#-------------------------------------------------------------------------------
C#-------------------------------------------------------------------------------
G --------3----------------------------------------------------------------------
D#--33-03----5-------------------------------------------------------------------
>  "im still burning"       

Comments