Floater - Danny Boy Chords & Tabs

 

Danny Boy Chords & Tabs

Floater Chords & Tabs

Version: 3 Type: Bass Tab 0 ratings
1 star 2 stars 3 stars 4 stars 5 stars
comments

Danny Boy Bass Tab

   
Artist: Floater
Song: The Sad Ballad Of Danny Boy

~ = Let Ring

Intro:
G|-------|
D|-------|
A|-5-6-7-|
E|-------|

Verse:
G|----------------------------------------------------------|
D|----------------------------------------------------------|
A|---7---7---7---7---7---7---7---7---7---7---7---7---7---7--|
E|-0---0---0---0---0---0---0---0---0---0---0---0---0---0----|not exact amount
[ Tab from: http://www.guitartabs.cc/tabs/f/floater/danny_boy_btab_ver_3.html ]
Part Before Chorus:
G|----------------------------------------------------------|
D|----------------------------------------------------------|
A|---7---7---7---7---7---7---7---7---7---7---7---7---7---7--|
E|-5---5---5---5---5---5---5---5---5---5---5---5---5---5----| not exact amount

Chorus:
G|----------------|
D|----------------|
A|----------------|
E|-000-00--000-00-|

Bridge:
G|---------------------------------|
D|---------------------------------|
A|---------------------------------|
E|-7-6-3~--7-6-4~--7-6-5~--7-6-6~--|

That's it, simple and easy

Questions or Comments?
vanceaase67@hotmail.com
Comments