Flipsyde - Someday Chords & Tabs

 

Someday Chords & Tabs

Flipsyde Chords & Tabs

Version: 1 Type: Tab 0 ratings
1 star 2 stars 3 stars 4 stars 5 stars
comments

Someday Tab

Actually, I didn't tab this song by myself. But the guitar part is just great,
and this song wasn't on UG, so I looked for it on the internet.
I think this tab is correct although I can't play the whole song.
Well, enjoy it. =)

x Marije


Mxtabs [http://www.mxtabs.net]
Flipsyde - Someday
Tabbed by: Andreas Welte

Guitar 1 Main Riff
e|----------------------------0-----------------------------------|
H|----0-1------1------0-----0-------------------------------------|
G|-----------0------2-----------1---------------------------------|
D|---------------3------------------------------------------------|
A|-0------3-------------------------------------------------------|
E|----------------------0-0---------------------------------------|

Guitar 2 Main Riff
e|----------------------------------------------------------------|
H|----------------------------------------------------------------|
G|----------------------------------------------------------------|
D|-2--2-2-2--2-2-5--5-5-5--5-5------------------------------------|
A|-0--0-0-0--0-0-3--3-3-3--3-3-3--3-3-3--3-3-2--2-2-2--2-2--------|
E|-----------------------------1--1-1-1--1-1-0--0-0-0-0-0--------|
  \\_________________________pm___________________________/

Guitar 3 Solo 1
e|01-0------------------------------------------------------------|
H|-----3-1-0------------------------------------------------------|
G|-----------2-1--------------------------------------------------|
D|---------------3-2-0--------------------------------------------|
A|---------------------3-2-3-2------------------------------------|
E|----------------------------------------------------------------|

Guitar 3 Solo 2
e|----------------------------------------------0-1-0-------------|
H|------------1--------------3--------------1-3-------3-1-0-0-----|
G|-T2-2-1-2-4-----T2-2-1-2-4-----T2-2-1-2-4-----------------------|
D|----------------------------------------------------------------|
A|----------------------------------------------------------------|
E|----------------------------------------------------------------|

e|----------------------------------5-3h5-8-10-12-12-12-12-12~~---|
H|-T0-0-1-0---0-1-0-1-3-5-6-5-6-5~~-------------------------------|
G|----------2-----------------------------------------------------|
D|----------------------------------------------------------------|
A|----------------------------------------------------------------|
E|----------------------------------------------------------------|
[ Tab from: http://www.guitartabs.cc/tabs/f/flipsyde/someday_tab.html ]
e|-05-8-7-8-5-8-7-8-7-10-8-10-7-10-8-10-8-12-10-12-8-12-10-12-----|
H|----------------------------------------------------------------|
G|----------------------------------------------------------------|
D|----------------------------------------------------------------|
A|----------------------------------------------------------------|
E|----------------------------------------------------------------|

e|-1313131312121212--12-15-13-12-10-13-12----12-15-13-12-10-13-12-|
H|-----------------10----------------------10---------------------|
G|----------------------------------------------------------------|
D|----------------------------------------------------------------|
A|----------------------------------------------------------------|
E|----------------------------------------------------------------|
   ______Tr______/
e|---12-15-13-12-10-13-12-10----12p10----12p10-----10-------------|
H|-10------------------------13-----13p12-----13p12-13p12p10-----|
G|----------------------------------------------------------------|
D|----------------------------------------------------------------|
A|----------------------------------------------------------------|
E|----------------------------------------------------------------|

e|-10-------------------------------------------------------------|
H|---13p12h13p10~~------------------------------------------------|
G|----------------------------------------------------------------|
D|----------------------------------------------------------------|
A|----------------------------------------------------------------|
E|----------------------------------------------------------------|

Guitar 1 Verse
e|-----8-12-----8-12-----8-12-13-12-8-10--------------------------|
H|--10-------10-------10------------------------------------------|
G|----------------------------------------------------------------|
D|----------------------------------------------------------------|
A|----------------------------------------------------------------|
E|----------------------------------------------------------------|

Guitar 2 Verse 1
e|-5------------5------------5----------5-------------------------|
H|----5--6---------5--6---------5--6--5----5--6-------------------|
G|----------5-7----------5-4---------------------5-4--------------|
D|----------------------------------------------------------------|
A|----------------------------------------------------------------|
E|----------------------------------------------------------------|

T   = Tremolo
?p? = Pull Down
?h? = Hammer On
~~  = Vibrato
pm  = Palm Muted
Comments