Flipsyde - Revolutionary Beat Chords & Tabs

 

Revolutionary Beat Chords & Tabs

Flipsyde Chords & Tabs

Version: 1 Type: Tab

Revolutionary Beat Tab

E||--------------------|---------------------------------------------------|
B||--12----------------|------12--13------12------12h13p12-----------------|
G||--------------------|--14------------------14---------------------------|
D||--------------------|---------------------------------------------------|
A||--------------------|---------------------------------------------------|
E||--------------------|---------------------------------------------------|
[ Tab from: http://www.guitartabs.cc/tabs/f/flipsyde/revolutionary_beat_tab.html ]
            
--------------------------------------|-----------------------------|
------12--13------12--13--15s-17--12--|-----------------------------|
--14----------------------------------|--12--14--13b----------------|
--------------------------------------|-----------------------------|
--------------------------------------|-----------------------------|
--------------------------------------|-----------------------------|
     
----------------------------------|--------------------------|
----------------------------------|--------------------------|
--12p11-11h12---------------------|--------------------------|
----------------14----------------|-----12--10---------------|
----------------------------------|--------------------------|
----------------------------------|--------------------------|
             
----------------------|-----||
----------------------|-----||
----------------------|-----||
--10--9---------------|-----||
----------------------|-----||
----------------------|-----||

This is my first tab ever, this intro isn't that though and i think it's pretty accurate... 
If there's anyone out there who can tab the solo-part please do it :) ! 
it's a great solo...  

Comments are always welcome!!
d.vandicovic@gmail.com