Flipsyde - No More Chords & Tabs

 

No More Chords & Tabs

Flipsyde Chords & Tabs

Version: 1 Type: Chords 0 ratings
1 star 2 stars 3 stars 4 stars 5 stars
comments

No More Chords

   
if you play it in chords the song goes the same thru the whole song

C,Em,Am,Am

And if you play the tab way its like this:

Verses:

C           Em         Am        Am
-----------------------------------------------------|
-----1---1------0---0------1---1-----1---1-----------|
-------0----------0----------2---------2---2---------|
---2----------2---------2----------2-----------------|
-3----------2---------0----------0-------------------|
-----------------------------------------------------|

Refrain:
C         Em       Am       Am
-----------------------------------------------------|
-----1--------0--------1--------1--------------------|
---0---0----0---0----2---2----2---2------------------|
-----------------------------------------------------|
-3--------2--------0--------0------------------------|
-----------------------------------------------------|

Verse1:
         C                           Em
From the wound to the world from the world to the grave

         Am
from the grave to the heavens and my spirit

C                                   Em
From the liquor to the drugs to the police and the thugs
[ Tab from: http://www.guitartabs.cc/tabs/f/flipsyde/no_more_crd.html ]
      Am
to my prayers and hope that he hears it

C                               Em
Little kids in the street Never sleep never eat

      Am
Carry burdens of their mommas' and the papas'

C                                 Em
To the hell on this Earth Gettin' hot gettin' worse

           Am
Cause were cursed nobody can stop us

C                   Em
Take a look see the sights that I've seen

        Am
See the lust see the greed jealousy and killin'

C                       Em
Walk the walk that I've walked All alone in the

Am
dark overtaken by this feelin' that I'm feelin'

C                        Em
Touch the hand that I've touched In the night

       Am
what a rush turning blue so could and breathless

C                    Em
See the bars and the chains on your wrist on your

Am
brain Feel the pain of a grown man's death wish.

Refrain:
C       Em        Am
Is this all there is cause I don't want it no more
Is this all there is cause I don't want it no more
Is this all there is cause I don't want it no more
Is this all there is cause I don't want it no more

Tabbed By Flexmaster Mike :)
Comments