Flipper - Life Chords & Tabs

 

Life Chords & Tabs

Flipper Chords & Tabs

Version: 1 Type: Bass Tab 0 ratings
1 star 2 stars 3 stars 4 stars 5 stars
comments

Life Bass Tab

here's life, as i know it....
[ Tab from: http://www.guitartabs.cc/tabs/f/flipper/life_btab.html ]
Intro:
G|----------------------------------------------------|
D|----------------------------------------------------|
A|-----------------7-----------5----------------------|
E|--0-5----------0-----------0-----------0-4----------|

Song:
G|----------------------------------------------------|
D|----------------------------------------------------|
A|-----------------7--77-777---5--55-555--------------|
E|--0-5--55-555--0-----------0-----------0-4--44-444--|

play with it.
Comments