Flip Kowlier - Vredeslied Chords & Tabs

 

Vredeslied Chords & Tabs

Flip Kowlier Chords & Tabs

Version: 1 Type: Tab 0 ratings
1 star 2 stars 3 stars 4 stars 5 stars
comments

Vredeslied Tab

   
Vredeslied - Flip Kowlier
Tabbed by Admiral Freebee

Intro

------2---5--3-----5--3-------3---5--2-----5-2--------------------------------
------2--------3--------3-----3--------2-------2------------------------------
----2------------3----------3------------2------------------------------------
--0-----0----0------------0-----0----0----------------------------------------
------------------------------------------------------------------------------
------------------------------------------------------------------------------

Verse
[ Tab from: http://www.guitartabs.cc/tabs/f/flip_kowlier/vredeslied_tab.html ]
D		    G		  D		  G		
------2---2------|-------3---3--|-----2---3----|-------3---3------------------
------3---3------|-------3---3--|-----3--------|-------3----------------------
---2----2---2----|-----0---0---0|---2---2---2--|-----0---0---0----------------
-0---------------|--------------|-0------------|------------------------------
-----------------|--------------|--------------|------------------------------
-----------------|---3----------|--------------|---3--------------------------
                                                                              

De paster van de prochie
Zit ip zijn bluote knien
En ie vraegt an god de vaeder
Ek een twa miszeid meskien?
God de vader
Pakt een boekse
En gebaert dat ie 't niet uort
De paster eraelt zin vraege
Moa jahwe leest vuort

Minne beste moat van vroeger
Is ol lange getrouwd
Jit ne cabriolet
En zin us is o gebouwd
J'it een ontje
Ti ne keffer
En het blaft ot et mie ziet
En in 't leven
Stoan zo vodder
		   G (just play the chords here)
Moa spit dat e kik niet


Refrein


D		    G	
Idrjin kommoa speel idrjin kom moa speeln
D		       G	 
'K goa u moatje zin ge goat u nie verveel
D			   G
Ochjirre toch da kindje 't kikt een bitje skeel
D		   G 	
Zelfs gehandicapte homosexueeln			               E A D G B E
D			 G 		               D#maj7 (x-x-0-3-3-3)
Ge meug nie van u moeder kan 't mie wel inbeeln

Etc ...
Comments