Flip Kowlier - Moeder Lieve Moeder Chords & Tabs

 

Moeder Lieve Moeder Chords & Tabs

Flip Kowlier Chords & Tabs

Version: 1 Type: Tab 0 ratings
1 star 2 stars 3 stars 4 stars 5 stars
comments

Moeder Lieve Moeder Tab

   
Moeder lieve moeder - Flip Kowlier
tabbed by Admiral Freebee

Intro : Em
e----------------------------------------------------
B----------------------------------------------------
G----------------------------------------------------
D----------------------------------------------------
A---2---2---3---2------------------------------------
E-0---0---0---0--------------------------------------

sometimes this afterwards:
e----------------------------------------------------
B----------------------------------------------------
G----------------------------------------------------
D---2---2---3---2------------------------------------
A-2---2---2---2--------------------------------------
E----------------------------------------------------

Verse: D(x57775)   Em (x79987)
zeune lieve zeune 
oeddet voer un eigen
u vader goat ier nimmi lange zin 
wil je daaran peizen

moeders woorden kwam art an 
oe kan kik nu verzwiegen 
dat de liefde van min leevn 
nen vint is
[ Tab from: http://www.guitartabs.cc/tabs/f/flip_kowlier/moeder_lieve_moeder_tab.html ]
Em (022000)                         G (320033)
en 18 eum vuo dat oes vader noa den emel ging
Em						   G       Em
wil je 't nie weten, mag 'k et niet zeggen

moeder lieve moeder 
worom zoek moeten liegen
vader gao mie wel verstoan 
ik wil em nie bedriegen

danny is zuo goe voe mie 
danny goa mie redden 
kljinkinders goan der nie vankom 
moa mak et toch niet zeggen?

dat danni en ik oes tristig leven zoen wil tuope doen 
wil je 't nie weten, mag 'k et niet zeggen

voader lieve voader 
ik moet u twa ipbiechten 
'k è een bitje moeite 
moa kanne echt nie liegen

zwieg moa lieve zeune 
'k èt oltit geweten 
'k ot o lange deure 
wil je nuoit vergeten

in minnen tid was dat o zuo gemakkelijk niet 
u moeder kwam geweun 


At the end you don't have to play G all the time, you have to play 
Em sometimes as well:
 		     G     Em 
 ip 't juste moment
              G      Em
't mocht niet zin
     G     Em


Have fun!
Comments