Flickerstick - Talk Show Host Chords & Tabs

 

Talk Show Host Chords & Tabs

Flickerstick Chords & Tabs

Version: 1 Type: Tab 0 ratings
1 star 2 stars 3 stars 4 stars 5 stars
comments

Talk Show Host Tab

   
9"Talk Show Host" By: Flickerstick
Standard Tuning

Chords used

A5   (577xxx)
F#5   (244xxx)
G5   (355xxx)

Intro

starts with bass

(cory w/ delay)
B-----------------|
G-14----12--------|
D----14----12-11--| repeat 4 times

B----------|
G-14-------|
D-----9-11-|

(rex)
A5   F#5     G5 (repeat 4 times)

Chorus

(rex)
same chord progression

Listen to the song to tell in what parts you play the chords.
It is pretty easy

Solo
(Cory)
[ Tab from: http://www.guitartabs.cc/tabs/f/flickerstick/talk_show_host_tab.html ]
E------------------------------------------------|
B-15--15--15--14--14--14--17------14-15-14-15-14-|
G----------------------------14------------------| repeat 4 times

E------------------------------------|------------------------------------|
B-14-15-14--14-15-14--14-15-14-17-14-|-14-15-14--14-15-14--14-15-14-17-14-|
G------------------------------------|------------------------------------|

E------------------------------------|------------------------|
B-14-15-14--14-15-14--14-15-14-17-14-|-14---------14-15-14----|
G------------------------------------|----16-14-16---------16-| repeat

Thats about it.
Enjoy
Comments