Flickerstick - Sorry Wrong Trajectory Chords & Tabs

 

Sorry Wrong Trajectory Chords & Tabs

Flickerstick Chords & Tabs

Version: 4 Type: Tab 0 ratings
1 star 2 stars 3 stars 4 stars 5 stars
comments

Sorry Wrong Trajectory Tab

e---------------------------------------------------------------|
B-7/15--7--15--17--12-15-12-10-12-10-7-10-10-7-5-3-5-7-8--------|
G---------------------------------------------------------------|
D---------------------------------------------------------------|
A---------------------------------------------------------------|
E---------------------------------------------------------------|

e---------------------------------------------------------------|
B-15--7--15--17--12-15-12-10-12-10-7-10-10-7-5-3-5-7-7----------|
G---------------------------------------------------------------|
D---------------------------------------------------------------|
A---------------------------------------------------------------|
E---------------------------------------------------------------|

e-15--15-15-15--14-------15--15-15-15--14-------15--15-15-15--14-------15--15-15-15-14----------|
B------------------17-17------------------15-15------------------17-17-----------------15-15-15-|
G-----------------------------------------------------------------------------------------------|
D-----------------------------------------------------------------------------------------------|
A-----------------------------------------------------------------------------------------------|
E-----------------------------------------------------------------------------------------------|
[ Tab from: http://www.guitartabs.cc/tabs/f/flickerstick/sorry_wrong_trajectory_tab_ver_4.html ]
e-15--15-15-15--14-------15--15-15-15--14-------15--15-15-15--14-------15--15-15-15-14--------|
B------------------17-17------------------15-15------------------17-17-----------------15-15--|
G---------------------------------------------------------------------------------------------|
D-----------------------------------------------------------------------------------------------|
A-----------------------------------------------------------------------------------------------|
E-----------------------------------------------------------------------------------------------|

e-3-333-2-2-2-3-3-3-2-2-5-3-2-0---3-333-2-2-2-3-3-3-2-2-5-3-2-0---|
B-------------------------------3-------------------------------3-|
G-----------------------------------------------------------------|
D-----------------------------------------------------------------|
A-----------------------------------------------------------------|
E-----------------------------------------------------------------|

e-3-333-2-2-2-3-3-3-2-2-5-3-2h3p2-0---3-2h3p2-0---3-2h3p2-0---3-2h3p2-0---3-2h3p2-0----|
B-----------------------------------3-----------3-----------3-----------3-----------3--|
G--------------------------------------------------------------------------------------|
D--------------------------------------------------------------------------------------|
A--------------------------------------------------------------------------------------|
E--------------------------------------------------------------------------------------|

e-3-2h3p2-0---3-2h3p2-0---3-2h3p2-0---3-2h3p2-0---3-2h3p2-0---3-2h3p2-0---3-2h3p2-0---|
B-----------3-----------3-----------3-----------3-----------3-----------3-----------3-|
G-------------------------------------------------------------------------------------|
D-------------------------------------------------------------------------------------|
A-------------------------------------------------------------------------------------|
E-------------------------------------------------------------------------------------|

e-5-2h3p2-0---3-2h3p2-0---3-2h3p2-0---3-2h3p2-0---3-2h3p2-0------|
B-----------3-----------3-----------3-----------3-----------3-0--|
G----------------------------------------------------------------|
D----------------------------------------------------------------|
A----------------------------------------------------------------|
E----------------------------------------------------------------|
Comments