Flickerstick - Direct Line To The Telepathic Chords & Tabs

 

Direct Line To The Telepathic Chords & Tabs

Flickerstick Chords & Tabs

Version: 3 Type: Tab 0 ratings
1 star 2 stars 3 stars 4 stars 5 stars
comments

Direct Line To The Telepathic Tab

Direct Line To The Telepathic
by, flickerstick

tabbed by,Johnny G

Drop D tuning

Pedals most likely in use: Super Chorus

This is basically the whole song:


E-------------------------|
B-------------------------|
G-------------------------|
D--4---6---5---4---5------|
A--5---5---5---5---5------|
D--0---0---0---0---0------|

...listen to the CD to get the strum patterns, etc.

[ Tab from: http://www.guitartabs.cc/tabs/f/flickerstick/direct_line_to_the_telepathic_tab_ver_3.html ]
This is basically the whole song: How this song works is simple.
there is an acoustic guitar that stays the same for the whole song
and there is an electric guitar, which when it comes in takes the super
chorus with it. Be sure to have the super chorus on high.


"Direct Line to the Telepathic Version 2


direct line is played by rex like this:

E-----------------------|
B-----------------------|
G-----------------------|
D--12--12--12--12-------|
A--9---11--10--9--------|
D--0---0---0---0--------|
Comments