Flickerstick - Beautiful Chords & Tabs

 

Beautiful Chords & Tabs

Flickerstick Chords & Tabs

Version: 2 Type: Tab 0 ratings
1 star 2 stars 3 stars 4 stars 5 stars
comments

Beautiful Tab

Song Title: Beautiful
Artist: Flickerstick
Tabbed by: Dan M.

     This song is played in standard tuning (high to low: E, B, G, D, A, E.)
Flickerstick is an awesome band and I would suggest buying there 
album to anyone. To checkout or buy their album you can go to either 
Flickerstick.com or Mp3.com. The song is probably about 99% percent 
correct. Questions, comments, suggestions, revisions? 
E-mail me at Dantwan2@cs.com.  



Verse  Rhythm(clean. Maybe with a little bit of a chorus pedal) Play in all verses

E------------0---------------0-------------0-----------------0-----------------------------------------E
B--------------------------------------------------------------------------------------------------------B
G---1^2------------1--2-----------1--2------------1--2----------------------------------------------G
D-------------------------------------------------------------------------------------------------------D
A-------------------------------------------------------------------------------------------------------A
E--------------------------------------------------------------------------------------------------------E

Lead (clean) Play in all verses

E--------------------------------|-----------------------------------------------------------------------E
B------------------5-5-5-5-5--|-----------------------------------------------------------------------B
G----------------------------- - |-------------------6-6-6-6-6-6--------------------------------------G
D--6----6-6-6--------------- --|---6----6-6-6--------------------------------------------------------D
A--------------------------------|-----------------------------------------------------------------------A
E--------------------------------|-----------------------------------------------------------------------E

E-------------------------------------|------------------------------------------------E\
B-------------------------------------|------------------------------------------------D \
G------------------4--4--------------|---------------4--4----------------------------G  \__play
D--6----6-6-6------------6--4------|--6---6-6-6-----------6--4-------------------D  /    5 times
A----------------------------------7--|--------------------------------7--------------A /
E--------------------------------------|-----------------------------------------------E /

E--------------------------------|-----------------------------------------------------------------------E
B------------------5-5-5-5-5--|-----------------------------------------------------------------------B
G----------------------------- - |-------------------6-6-6-6-6-6--------------------------------------G
D--6----6-6-6--------------- --|---6----6-6-6--------------------------------------------------------D
A--------------------------------|-----------------------------------------------------------------------A
E--------------------------------|-----------------------------------------------------------------------E

[ Tab from: http://www.guitartabs.cc/tabs/f/flickerstick/beautiful_tab_ver_2.html ]
E-------------------------------------------------------------------------------------------------------E
B-------------------------------------------------------------------------------------------------------B
G------------------4-4---------------------------------------------------------------------------------G
D----6---6-6-6-----------6-4----------6---6-6-6-------4--6--4---------4---6---4-----------------D
A---------------------------------7-----------------------------------7-------------------7------------A
E--------------------------------------------------------------------------------------------------------E


Chorus

Rhythm (distortion) play on every chorus
	
E----------------------------------------------------------------------------------- --------------------E
B---------------------------------------------------------------------------------- ---------------------B
G--------------------------------------------------------------------------------- ----------------------G
D-----11----------9------------7--------------11---------- 9----------7------ -----------------------D
A-----11----------9------------7--------------11---------- 9----------7--     ------------------------A
E------9-----------7------------5--------------9------------7----------5------------------------------E
     x 8	   x 8             x 16              x 8             x 8          x 16


E--------------------------------------------------------------------------------------------------------E
B--------------------------------------------------------------------------------------------------------B
G-------------------------------------------------------------------------------------------------------G
D-----11----------9------------7---------7-------11---------- 9---------- 7--------7----------------D
A-----11----------9------------7---------7-------11---------- 9---------- 7--------7----------------A
E------9-----------7------------5---------5--------9------------7----------5--------5----------------E
          x 4	   x 4             x 4          x 8       x 4             x 4          x 4        x 8

Lead (Distortion) play this on every chorus

E-------------------------------------------------------------------------------------------------------E
B-------------------------------------------------------------------------------------------------------B
G----9/16----------9/16---------------11---11---11-------13---13---13--------------------------G
D-------------------------------------------------------------------------------14---------------------D
A-------------------------------------------------------------------------------------------------------A
E--------------------------------------------------------------------------------------------------------E

Bridge
Both guitars w/ dist.
E-------------------------------------------------------------------------------------------------------E
B-------------------------------------------------------------------------------------------------------B
G-------------------------------------------------------------------------------------------------------G
D---11-------9---------7------------------------------------------------------------------------------D
A---11-------9---------7------------------------------------------------------------------------------A
E----9--------7---------5------------------------------------------------------------------------------E
       x 2        x 2          x 4
End
Both Guitars (distortion)
E--------------------------------------------------------------------------------------------------------E
B--------------------------------------------------------------------------------------------------------B
G-------------------------------------------------------------------------------------------------------G
D---11------9------------------------------------------------------------------------------------------D
A---11------9------------------------------------------------------------------------------------------A
E----9-------7------------------------------------------------------------------------------------------E
       x 8     x 8        
Comments