Fleetwood Mac - Thrown Down Chords & Tabs

 

Thrown Down Chords & Tabs

Fleetwood Mac Chords & Tabs

Version: 1 Type: Tab 0 ratings
1 star 2 stars 3 stars 4 stars 5 stars
comments

Thrown Down Tab

   
Fleetwood Mac - Thrown Down
From the album "Say You Will" 2003
Written and performed by Stevie Nicks. 
Tabbed by Ashley Martin

**Capo on 1st Fret**
 
4/4 time

CHORDS
Fmin, Eb, and Db

INTRO  
This is played during the verses.
Main Riff
e|-----------------------------------------------|
B|-----------------------------------------------|
G|------0--(0)----0------2--(2)--2--(2)----2-----|
D|---2------2--2-----2-------0-------0--0-----0--|
A|-----------------------------------------------|
E|-----------------------------------------------|
   Fmin                     Eb                              
e|------------------------------------------------------|
B|------------------------------------------------------|
G|---0--(0)----0--(0)----0-----2--(2)--2--(2)----2---0--|
D|---------------------------------0-------0--0---0-----|
A|-------3---------3--3-----3---------------------------|
E|------------------------------------------------------|
   Db                             Eb
Then Mick and John join in... Lindsey plays the riff again and then Stevie starts Singing.


        
 VERSE 1-Repeat main riff five times. 
         I think there are a couple of variations.
        



CHORUS - Main riff plays in the background.

e|-----------------------------------|
B|-------------------5p3p0-----------|
G|--------------------------------2v-|
D|-----------------------------------|
A|-----------------------------------|
E|-----------------------------------|
    Db                            Eb
  Throowwn doowwn...                     
[ Tab from: http://www.guitartabs.cc/tabs/f/fleetwood_mac/thrown_down_tab.html ]
e|-------------------------------------|
B|------------------------0-----0h3----|
G|--------------------2------2---------|
D|-------------------------------------|
A|-------------------------------------|
E|-------------------------------------|
    Db                            Eb
  Like a barricade...

e|-----------------------------------------------------------|
B|------------------------------------------------------0h3--|
G|---------------------------------0--2p0--2p0--2p0--2-------|
D|-----------------------------------------------------------|
A|-----------------------------------------------------------|
E|-----------------------------------------------------------|
     Db                             Eb
  Maybe now he could prove to her...

e|----------------------------------------------3--5/7\5p3-------|
B|------------------------------------3h5--3--5--------------5v--|
G|---------------------------------------------------------------|
D|---------------------------------------------------------------|
A|---------------------------------------------------------------|
E|---------------------------------------------------------------|
     Db                            Eb
  That he could be good for her...

  And they sould be together...

VERSE 2&3-Main Riff. Same as first verse.

CHORUS 

Lindsey keeps playing the main riff until the end. 

Listen to the song for timing. The main riff is an electric guitar clean,
not distorted. But it also sounds good on acoustic. Well Have Fun!!

Legend
-------
h - hammer on
p - pull off
\ - slide down
/ - slide down
v - vibrate
( )- tied notes
Comments