Fleetwood Mac - Shake Your Money Maker Chords & Tabs

 

Shake Your Money Maker Chords & Tabs

Fleetwood Mac Chords & Tabs

Version: 1 Type: Tab 0 ratings
1 star 2 stars 3 stars 4 stars 5 stars
comments

Shake Your Money Maker Tab

   
#---------------------------------PLEASE NOTE---------------------------------#
#This tab is the author's own work and represents their interpretation of the #
#song. You may only use this tab for private study, scholarship, or research. #
#-----------------------------------------------------------------------------#

Playing Notes:

/ - slide up
\ - slide down
s - slide between notes
~ - vibrato

played in Open E (E B E G# B E from low to high)


Part 1:
E-|-----------------------/12-12\-------------------------/12-12\-------------|
B-|-----------------------/12-12\-------------------------/12-12\-------------|
G#|-----------------------/12-12\-------------------------/12-12\---1---------|
E-|--------------------0--/12-12\----------------------0--/12-12\-----0-0-2-2-|
B-|-2--0-0-2-2-0-0-2-2--------------2--0-0-2-2-0-0-2-2------------------------|
E-|---------------------------------------------------------------------------|


|-------------/5-5\-------------------------/12-12\-------------------------|
|-------------/5-5\-------------------------/12-12\-------------------------|
|---------1---/5-5\-------------------------/12-12\----------0-0-----0-0----|
|-0-0-2-2-----/5-5\-------------------------/12-12\------2-2-----2-2--------|
|---------------------2--0-0-2-2-0-0-2-2-0------------0---------------------|
|---------------------------------------------------------------------------|


|--------------------------|
|-/5~--/12--/12/12--/12/12-|
|-/5~--/12--/12/12--/12/12-|
|-/5~--/12--/12/12--/12/12-|
|--------------------------|
|--------------------------|


Part 2:
|---------------------------------------------------------------------------|
|-/12-14-15-14-12-----/12-14-15-14-12-----/5-7-8-7-5-----/12-14-15-14-12----|
|---------------------------------------------------------------------------|
|---------------/12\----------------/12\------------/5\----------------/12\-|
|---------------------------------------------------------------------------|
|---------------------------------------------------------------------------|

[ Tab from: http://www.guitartabs.cc/tabs/f/fleetwood_mac/shake_your_money_maker_tab.html ]
|---------------------------------------------------------------------------|
|-------7-------/7\---------5-------/5\----/12--/12/12--/12/12--------------|
|-5-s-7---7-s-5-/7\---3-s-5---5-s-3-/5\----/12--/12/12--/12/12--------------|
|---------------/7\-----------------/5\----/12--/12/12--/12/12--------------|
|---------------------------------------------------------------------------|
|---------------------------------------------------------------------------|


Part 3:
|-/15\---12-10-------------/15\---12-10-------------------------------------|
|-/15\--------12s10--------/15\--------12s10--------------12--------12------|
|-/15\-------------/12-----/15\-------------/12------/12-------/12----------|
|---------------------12-----------------------12---------------------------|
|---------------------------------------------------------------------------|
|---------------------------------------------------------------------------|


|----------------------------------12-10------------------------------------|
|----12------------12-------------------12s10-/12\(x-times)/12\--12s10------|
|-/12--(x-times)/12---/12---------------------------------------------/12---|
|-------------------------12-12------------------------------------------12-|
|---------------------------------------------------------------------------|
|---------------------------------------------------------------------------|



Part 4:
|-/15-15\---/15(x-times)/15--12-------12--10--/12s10-/12s10-/12-------------|
|-/15-15\------------------------12------------------------------12-10------|
|------------------------------12-------------------------------------------|
|---------------------------------------------------------------------------|
|---------------------------------------------------------------------------|
|---------------------------------------------------------------------------|


|---------------------------------------------------|
|-/12\(x-times)/12\--/12s10-------------------------|
|--------------------------/12-----/12(x-times)/12--|
|-----------------------------12--------------------|
|---------------------------------------------------|
|---------------------------------------------------|


last riff:
|-12-10---------------------|
|-------12s10----------/12~-|
|-------------/12------/12~-|
|----------------------/12~-|
|---------------------------|
|---------------------------|


A sweet slide tune :) from the hands of peter green and his fleetwood mac 
Comments