Fleetwood Mac - Oh Well Chords & Tabs

 

Oh Well Chords & Tabs

Fleetwood Mac Chords & Tabs

Version: 2 Type: Tab 0 ratings
1 star 2 stars 3 stars 4 stars 5 stars
comments

Oh Well Tab

   
##################################################################################
# This file is the author's own work and represents their interpretation of the  #
# song. You may only use this file for private study, scholarship, or research.  #
##################################################################################

Oh Well - Fleetwood Mac

key

h hammer on
p pull off
b bend
x damped note
~ vibrato

Intro 


e------------------------------------------------------------------------
B------------------------------------------------------------------------
G------------------------------------------------------------------------
D-------------0-----------2-2-------------0------2--2-2------------------
A--------0-0h2-0h1p0-----x2x2x-x-----0-0h2--0h2p0--x2x2------------------
E--0h3bp0-----------3bp0-x0x0x-xh3bp0--------------x0x0------------------
                   
                            

e------------------------------------------------------------------------
B------------------------------------------------------------------------
G------------------------------------------------------------------------
D-------------0-----------2-2-------------0h2-0------------2-2-2-2-------
A--x-----0-0h2-0h1p0-----x2x2x-x------0h2-------2p0-------x2x2x2-2-------
E--xh3bp0-----------3bp0-x0x0x-xh3bp0---------------3-2p0-x0x0x0-0------

 gtr#1        gtr#2                       
[ Tab from: http://www.guitartabs.cc/tabs/f/fleetwood_mac/oh_well_tab_ver_2.html ]
e----------------------------        e----------------------------
B----------------------------        B----------------------------
G----------------------------        G----------------------12~~~~
D--x----x-x--x-x-x-----------   X 4  D--12h14--14-14--14-14-------
A--5h7--7-7--7-7-7-----------        A----------------------------
E--0----0-0--0-0-0-----------        E----------------------------



e----------------------------        e----------------------------
B----------------------------        B----------------------------
G----------------------------   X 4  G---------12-----------------
D--x-----5------x--x-x-------        D--12h14----h14---14--14-14--
A--5h7--(5)h7---7--7-7-------        A----------------------------
E--0--------0---0--0-0-------        E----------------------------



e----------------------------        e--------------------------------
B----------------------------        B--------------------------------
G----------------------------  x 4   G--------12----------------------
D-------5---------x-x-x------        D--12h14---h14-12h14---14-14-14--
A--5h7---h7-5h7---7-7-7------        A--------------------------------
E-----------------0-0-0------        E--------------------------------

 gtr #1

e-------------------------------------------------------
B-------------------------------------------------------
G------------------------------------------------7------
D---------5-----7-----8-----------2-3-4-7-8-9----5------
A---5-h7----h7-----7-----7---2--5-0-1-2-5-6-7----7------
E----------------------------0--3-----------------------

 gtr #2

e-------------------------------------------------------
B-----------------------------------------------12~~~~--
G--------12----14----15-----------------7-8-9---12~~~~--
D--12h14---h14----14----14--------7-8-9---------12~~~~--
A----------------------------7-10-----------------------
E-------------------------------------------------------
Comments