Fleetwood Mac - Landslide Chords & Tabs

 

Landslide Chords & Tabs

Fleetwood Mac Chords & Tabs

Version: 2 Type: Tab 0 ratings
1 star 2 stars 3 stars 4 stars 5 stars
comments

Landslide Tab

   
#----------------------------------PLEASE NOTE---------------------------------#
#This file is the author's own work and represents their interpretation of the #
#song. You may only use this file for private study, scholarship, or research. #
#------------------------------------------------------------------------------#
LANDSLIDE (Stevie Nicks)
------------------------
A few notes:

 * Most of the song uses a picking pattern a lot like the intro; there _is_
some variation (and maybe a 2nd guitar), but you'll get a lot of mileage out
of the intro tab.  The big exception is the part that goes "well I've been
afraid of changing," where the chords change completely.  (And if anyone
wants to tab that part out, send it to me and I'll add it to this file!)
 * Most of the variation in the C G/B Am7 G/B part is in the form of high G
notes.  I.e., fretting the high E string at the 3rd fret with your left
pinky, and playing that instead of the B string in some measures, and also
at the beginning of some measures, with the first bass note.  You'll have to
listen to the song to figure out _exactly_ where to do it.

 * All the chords are one measure in duration, except "Am7 - G/B," which is
one measure _total_.
 * D7/F# is 200212, or maybe 20021x.  I play it 200212, with my thumb on the
low E string.
 * It's actually in E flat; capo at the 3rd fret.

 * In the guitar solo, "/" is a slide, "=" is a hammer-on or pull-off, and 
the marks underneath are for timing.  The timing is pretty accurate.
 * Some of the places in the guitar solo where I put hammer-ons or pull-offs
should probably be bends (e.g., 10=12 should maybe be 10b12).  But I don't
have an electric guitar, so I can't do whole-step bends.
 * I might not have put the solo on the right strings; the _notes_ are
right, but where I notated a 3 on the E-string, it might really be an 8 on
the B string, and so on.  Use whichever fingering works best for you.


[INTRO:]

  C                G/B              Am7              G/B
E ----------------|----------------|----------------|----------------|
B ------1---------|------3---------|------1---------|------3---------|
G --0-------0-----|--0-------0-----|--0-------0-----|--0-------0-----|(repeat)
D ----2-------2---|----0-------0---|----2-------2---|----0-------0---|
A 3-------3-------|2-------2-------|0-------0-------|2-------2-------|
E ----------------|----------------|----------------|----------------|



[GUITAR SOLO:]
  C                G/B              Am7              G/B
E ------------7-10|----------------|--------10=12---|10------7=5-----|
B --------5/8-----|----------------|----------------|------------8-8-|
G ----------------|----------------|----------------|----------------|
  ^ . ^ . ^ . ^ .  ^ . ^ . ^ . ^ .  ^ . ^ . ^ . ^ .  ^ . ^ . ^ . ^ .
 
  C                G/B              Am7              G/B
E ----------------|----------------|----------------|----------------|
B ---------8/10-8-|--------0=1=3-3-|----------------|----------------|
G ----------------|----------------|----------------|----------------|
  ^ . ^ . ^ . ^ .  ^ . ^ . ^ . ^ .  ^ . ^ . ^ . ^ .  ^ . ^ . ^ . ^ .
 
  C                G/B              Am7              G/B
E ------------7-10|----------------|10=12---10------|7-------7=5-----|
B --------5/8-----|----------------|----------------|------------8---|
G ----------------|----------------|----------------|----------------|
  ^ . ^ . ^ . ^ .  ^ . ^ . ^ . ^ .  ^ . ^ . ^ . ^ .  ^ . ^ . ^ . ^ .

  C                G/B              Am7              D7/F#
E ------------8---|7---------------|--3-2-3-5-3-2-3-|2-0-2-0---------|
B/5-------8-------|--8---------0-1-|3---------------|--------3-1-3---|
G ----------------|----7-----------|----------------|----------------|
  ^ . ^ . ^ . ^ .  ^ . ^ . ^ . ^ .  ^ . ^ . ^ . ^ .  ^ . ^ . ^ . ^ .


*******************************************************************************************************

*******************************************************************************************************



Date: Sun, 10 May 1998 12:57:54 -0400
From: Carl Christensen 
Subject: f/fleetwood_mac/landslide.tab

"Landslide" by Steve Nicks / Fleetwood Mac
 -- solo from "The Dance" CD/Movie by Lindsey Buckingham
 -- tabbed by carl@navpoint.com

Tuning : E A D G B E  Time Signature 4/4
Capo 3rd Fret

 C                                G/B
 |       |       |       |        |       |       |       |
|--------------------------------|--------------------------------|
|------------1---------------1---|------------3---------------3---|
|----0---------------0-----------|----0---------------0-----------|
|--------2---------------2-------|--------0---------------0-------|
|3---------------3---------------|2---------------2---------------|
|--------------------------------|--------------------------------|


Am7                               G/B
 |       |       |       |        |       |       |       |
|--------------------------------|--------------------------------|
|------------1---------------1---|------------3---------------3---|
|----0---------------0-----------|----0---------------0-----------|
|--------2---------------2-------|--------0---------------0-------|
|0---------------0---------------|2---------------2---------------|
|--------------------------------|--------------------------------|

Am7                               D7/F#
 |       |       |       |        |       |       |       |
|--------------------------------|--------------------------------|
|------------1---------------1---|3-----------1---------------1---|
|----0---------------0-----------|----2---------------2-----------|
|--------2---------------2-------|--------0---------------0-------|
|0---------------0---------------|--------------------------------|
|--------------------------------|2---------------2---------------|
[ Tab from: http://www.guitartabs.cc/tabs/f/fleetwood_mac/landslide_tab_ver_2.html ]
C    G/B     Am7   D7/F#
  Mm hmm hmm hmm

G                                 D7/F#
 |       |       |       |        |       |       |       |
|------------3-------------------|--------------------------------|
|0-------------------0-----------|------------1-------------------|
|----0---------------------------|2-------------------2-----------|
|--------0---------------0-------|----0-------------------0-------|
|--------------------------------|--------0-----------------------|
|3---------------3---------------|2---------------2---------------|

Em
 |       |       |       |        |       |       |       |
|------------0-------------------|------------0-------------------|
|0-------------------------------|0-------------------------------|
|----0---------------------------|----0---------------------------|
|--------2---------------2-------|--------2---------------2-------|
|----------------2---------------|----------------2---------------|
|0-------------------------------|0-------------------------------|

       G           D7/F#     Em     Em
Well, I've been afraid of changing 'cause I've

C                                 G/B
 |       |       |       |        |       |       |       |
|------------3-------------------|------------3-------------------|
|1-------------------------------|3-------------------------------|
|----0---------------------------|----0---------------------------|
|--------2---------------2-------|--------0---------------0-------|
|3---------------3---------------|2---------------2---------------|
|--------------------------------|--------------------------------|

Am7                               D7/F#
 |       |       |       |        |       |       |       |
|------------3-------------------|--------------------------------|
|1-------------------------------|3-----------1---------------1---|
|----0---------------------------|----2---------------2-----------|
|--------2---------------2-------|--------0---------------0-------|
|0---------------0---------------|--------------------------------|
|--------------------------------|2---------------2---------------|

  C       G/B         Am7   D7/F#
Built my life around you .........

   

(solo, 16 measures)

 |       |       |       |        |       |       |       |
|--------------------------------|--------------------------------|
|------------------------0h--3---|(3 hold)------------------------|
|----------------0h--2-----------|--------------------------------|
|--------0---------------0-------|--------0---------------0-------|
|3---------------3---------------|2---------------2---------------|
|--------------------------------|--------------------------------|

 |       |       |       |        |       |       |       |
|--------------------------------|--------------------------------|
|3//5------------3---------------|0-------------------------------|
|--------------------------------|----------------2-------0-------|
|--------0---------------0-------|--------0---------------0-------|
|0---------------0---------------|2---------------2---------------|
|--------------------------------|--------------------------------|

 |       |       |       |        |       |       |       |
|--------------------------------|--------------------------------|
|--------------------------------|--------------------------------|
|--------------------0---2-------|0-------------------------------|
|--------0---------------0-------|--------0---------------0-------|
|3---------------3---------------|2---------------2h--3-----------|
|--------------------------------|--------------------------------|

 |       |       |       |        |       |       |       |
|----------------------------3---|--------------------2-------0---|
|------------1-------------------|----3---------------------------|
|--------------------0-----------|------------0-------------------|
|--------0---------------0-------|--------0---------------0-------|
|0---------------0---------------|2---------------2---------------|
|--------------------------------|--------------------------------|

 |       |       |       |        |       |       |       |
|--------------------------------|--------------------------------|
|------------------------0h--3---|(3 hold)------------------------|
|----------------0h--2-----------|--------------------------------|
|--------0---------------0-------|--------0---------------0-------|
|3---------------3---------------|2---------------2---------------|
|--------------------------------|--------------------------------|

 |       |       |       |        |       |       |       |
|--------------------------------|--------------------------------|
|3//5------------3---------------|0-------------------------------|
|--------------------------------|----------------2-------0-------|
|--------0---------------0-------|--------0---------------0-------|
|0---------------0---------------|2---------------2---------------|
|--------------------------------|--------------------------------|


 |       |       |       |        |       |       |       |
|--------------------------------|--------------------------------|
|------------------------1-------|0-------------------------------|
|--------------------0-----------|----0---------------------------|
|--------0---------------0-------|--------0---------------0h--2---|
|3---------------3---------------|2---------------2---------------|
|--------------------------------|--------------------------------|

 |       |       |       |        |       |       |       |
|----3---2---3---5---3---2---3---|2---0-------0-------------------|
|--------------------------------|--------3-------3---1---0-------|
|--------------------------------|----------------------------2---|
|--------2---------------2-------|0-----------------------0-------|
|0---------------0---------------|--------0-----------------------|
|--------------------------------|----------------2---------------|
Comments