Fleetwood Mac - Im Worried Chords & Tabs

 

Im Worried Chords & Tabs

Fleetwood Mac Chords & Tabs

Version: 1 Type: Tab 0 ratings
1 star 2 stars 3 stars 4 stars 5 stars
comments

Im Worried Tab

##################################################################################
# This file is the author's own work and represents their interpretation of the  #
# song. You may only use this file for private study, scholarship, or research.  #
##################################################################################

Song: I'm Worried
Artist: Fleetwood Mac
Album: Blues Jam In Chicago

Tabbed by: Francisco & Vitor Ribeiro Suman
           franciscosuman@hotmail.com
           suman@elvis.com

We found out this tune in the video "The Original Fleetwood Mac feat. Peter Green",
so this is like a tabbed version of that performance. You'll need to hear the
original recording to find out how it sounds...
Anyway, enjoy! Any comments or corrections can be sent to any of the e-mails stated above.

Symbols used:

--\-- Slide down
--/-- Slide up

Intro:
E |---/12-12-12-12-12-12-12-12-12-12-12-----------------------|
B |---/12-12-12-12-12-12-12-12-12-12-12-----------------------|
G#|---/12-12-12-12-12-12-12-12-12-12-12---12-------11/12------|
E |---/12-12-12-12-12-12-12-12-12-12-12--------11---------12\-|  2X
B |-----------------------------------------------------------|
E |-----------------------------------------------------------|
[ Tab from: http://www.guitartabs.cc/tabs/f/fleetwood_mac/im_worried_tab.html ]
Riff 1:
E |-----------13-------------------------------------------------|
B |---------------13---------------------------------------------|
G#|---11/13------------------------------------------------------|
E |---------------------------5-5-5-5-5-5-5-5-5-5-5-5-5-5-5-5\---|
B |---------------------------5-5-7-7-5-5-7-7-5-5-7-7-5-5-7-7\---|
E |---------------------------5-5-5-5-5-5-5-5-5-5-5-5-5-5-5-5\---|

Riff 2:
E |-----------13---------------------------------------------------|
B |---------------13-----------------------------------------------|
G#|---11/13--------------------------------------------------------|
E |---------------------------7-7-7-7-7-7-7-7\--5-5-5-5-5-5-5-5\---|
B |---------------------------7-7-9-9-7-7-9-9\--5-5-7-7-5-5-7-7\---|
E |---------------------------7-7-7-7-7-7-7-7\--5-5-5-5-5-5-5-5\---|

Riff 3 (ending riff):
E |------------------------------------|
B |-----0-----0-----0------------0-----|
G#|------------------------------------|
E |---------------------------0--0-----|
B |---3---3-2---2-1---1-0--0-----------|
E |------------------------------------|

SONG STRUCTURE:
Intro / Riff 1 / Riff 2 / Riff 3 (and start singing as follows)

VERSE 1

Intro / Riff 1 / Riff 2 / Riff 3

VERSE 2

SOLO:
Intro / Riff 1 / Riff 2 / Riff 3
(I didn't figured out the whole solo yet, so you got to play it 3 times...)

VERSE 3

Now, repeat verse 1, and stop it with this (after the ending riff):
E |-------5/7~------|
B |-------5/7~------|
G#|-------5/7~------|
E |-------5/7~------|
B |-------5/7~------|
E |-------5/7~------|
(or something like this, maybe from fret 9 to 11)


Brasil gets the blues (too!)
Have fun!
Chico & Vitor
Comments