Fleetwood Mac - Everywhere Chords & Tabs

 

Everywhere Chords & Tabs

Fleetwood Mac Chords & Tabs

Version: 2 Type: Tab 0 ratings
1 star 2 stars 3 stars 4 stars 5 stars
comments

Everywhere Tab

----------------------------------PLEASE NOTE---------------------------------#
#This file is the author's own work and represents their interpretation of the #
#song. You may only use this file for private study, scholarship, or research. #
#------------------------------------------------------------------------------#


Everywhere 
by: Fleetwood Mac
Album: The Dance (originally from "Tango In The Night")
transcribed by: Kevin League (mleague @mindspring.com)
[ Tab from: http://www.guitartabs.cc/tabs/f/fleetwood_mac/everywhere_tab_ver_2.html ]
Lindsey Buckingham starts the song out by picking an E chord very fast in a sweeping manner. 
 I can't play nearly fast enough to figure that part out, so I'll start with the riff he plays when the drums kick in.  
This riff is played throughout the verse.  I'll label it in different parts to let you know when to play what part when.  

       part I                       part II                part III                    
e|--------0-------------0-|------0-------------|--------0-------------|
B|------0-----2---4---0---|----0------2---4---0|------0-----2---4---5-|
G|----1-----2---4----1----|--1------2---4---1--|----1-----2---4---6---|
D|--2-----2---------------|2------2------------|--2-----2-------------|
A|------------------------|--------------------|----------------------|
E|------------------------|--------------------|----------------------|

 part IV
|------------------0-|
|-------2---0----0---|
|-----2---4----1-----|
|---2----------------|
|--------------------|
|--------------------|
Comments